Oops, an error
Loading. Please wait.

Wishing Well chords

28,823 views 138 this week
3 commentsread comments
1 2 3 4 5
x 42
add to favorites
×
Save as Personal and add changes to this tab that will be seen only by you. Learn more ›
×
You can save this tab as Personal to edit and correct it or add notes. All changes will be seen only by you. Learn more »
launch autoscroll
font size
0
reset
transpose
0
reset
display chords
guitar tuner
edit
Autoscroll
slow
fast
+/-
esc
set tempo
stop
Strumming
There is no strumming pattern for this song yet. and get +5 IQ
CAPO ON 2

First parts should be fingerpicked for the best sound :)


[Intro]

Am C F C x4


[Verse 1]

C            F        C
I ran like a speeding train

C               F          G
Cut my hair and changed my name

G        C         F
Only had myself to blame

F               Am    G   C
For the company i was keeping


[Instrumental]

Am C F C (x2)


[Verse 2]

C                 F         C
Curse my restless wandering feet

C               F       G
Prone to wander endlessly

G                C       F
All the love you gave to me

F         Am          G    C
It wasn't enough to keep me

Am    C             F     C
Oh, i stole from my father 

Am    C               F    
All i thought i could sell

Am         C             F             C
Tossed his copper, and i watched as it fell

Am                   F     C       G           
But there wasn't any water in the wishing well


[Instrumental]

Am C F C (x2)


[Verse 3]

C               F    C
Bent my knee to many kings

C           F     G
Idols of prosperity

G                 C       F
Heard that dollar calling me

F              Am     F  C
So i sought it in the city

Am    C             F     C
Oh, i stole from my father 

Am    C               F    
All i thought i could sell

Am         C             F             C
Tossed his copper, and i watched as it fell

Am                   F      C     G           
But there wasn't any water in the wishing well


[Outro]

(BEGIN STRUMMING)

Am       C              F  C  
For my soul, he made an offer

Am         C            F
And to the dust again i fell

Am           C             F          C
And oh, that devil's got a hold on me now

              Am         F     C       G       C
Because there wasn't any water in the wishing well

Am C F C (x4)

            
            
Suggest correction
Creating personal tab
Creating personal tab
You can edit any tab online and save it as your Personal.

You can edit, replace or remove any tab part or add personal notes – all changes will be seen only by you.

Personal tabs can be accessed anytime from any device, even offline.
Learn more »
comments
print report bad tab
3 comments total.
0 reply
Past-time 40 Dec 02, 2013 10:57 AM

Nice! Those sound great to me.

+1 reply
cannibalcatfi 31 Feb 26, 2017 05:53 AM

[Intro] (for anyone interested in picking it)
Use thumb for the f on the E string
e|-----------------------------------------------------------------------|
B|-------1-------1-----1--------1------1-------1------1------------1-----|
G|-----0-------0-----0-------0-------0-------0-------0-----------0-------|
D|---------------------------------------0/2------0----------------------|
A|----------3-------------3--------3---------------3-----------0---------|
E|-3/5-------------1-----------------------------------------------------|

e|-------------------------------------------------------------------|
B|----1----1-----1-----1-----1---------------------------------------|
G|--0----0-----0-----0-----0-----------------------------------------|
D|-------------------------------------------------------------------|
A|------3----3-----3-----3-------------------------------------------|
E|-1-----------------------------------------------------------------|

0 reply
kagiese14 10 Apr 25, 2017 07:50 PM

Sounds great! I find it easier to go from 3 to the open instead of sliding but the other way works well too.

guest
You may want to rate the tab now too:
select rating
Wanna post a correction for this tab? Suggest correction