Oops, an error
Loading. Please wait.

Mad chords

277 views 3 this week
no commentswrite comment
1 2 3 4 5
3 more votes to show rating
add to favorites
×
Save as Personal and add changes to this tab that will be seen only by you. Learn more ›
×
You can save this tab as Personal to edit and correct it or add notes. All changes will be seen only by you. Learn more »
launch autoscroll
font size
0
reset
transpose
0
reset
display chords
guitar tuner
edit
Autoscroll
slow
fast
+/-
esc
set tempo
stop
Strumming
There is no strumming pattern for this song yet. and get +5 IQ
    The Orwells - M.A.D.
Terrible Human Beings - 2017

https://www.youtube.com/watch?v=zhXe8RHLz5
___________________________________________________________________

[Intro]
    A             E            D
e|----------------------------------------------------|
B|------5---------------------------------------7-----|
G|--6-------6-------------------------------7-------5-|
D|--------------------2-------------4-----------------|
A|--------------2/4-------4---4/5-------5-------------|
E|----------------------------------------------------|

    A             E            D
e|----------------------------------------------------|
B|------5---------------------------------------7-----|
G|--6-------6-------------------------------7-------5-|
D|--------------------2-------------4-----------------|
A|--------------2/4-------4---4/5-------5-------------|
E|----------------------------------------------------|

[Verse 1]
A                E
Should'a smiled when I saw
D
Everyone that did me wrong
A                 E
Get a house and waste away
D
I'll do anything you say
A                E
Closed mind for one last time
D
Flip the pillow 'til I'm fine
A                E
Pull the sheet over my head
D
Spend the next four years in bed

[Chorus]
A              E
Save my money for a place
  D
(Maybe another day)
 A             E
Time I found another face
  D
(Maybe another day)
 A            E
Find an institution
  D
(Maybe another day)
A             E
Cash in on confusion
  D     A
(Maa-aaaay)

[Main Riff]
    A             E            D
e|----------------------------------------------------|
B|------5---------------------------------------7-----|
G|--6-------6-------------------------------7-------5-|
D|--------------------2-------------4-----------------|
A|--------------2/4-------4---4/5-------5-------------|
E|----------------------------------------------------|

    A             E            D
e|----------------------------------------------------|
B|------5---------------------------------------7-----|
G|--6-------6-------------------------------7-------5-|
D|--------------------2-------------4-----------------|
A|--------------2/4-------4---4/5-------5-------------|
E|----------------------------------------------------|

[Verse 2]
A          E
Want me to be a man
D
Put paper in my hand
A           E
Move in to keep you out
D
Can't say what it's about
A                    E
Woke up and you were gone, brown hair
             D
Well, you're gone, moved on; then keep on movin'
A      E       D
Ooonnn-nnnnn-nnnnnnn

[Chorus]
A              E
Save my money for a place
  D
(Maybe another day)
 A             E
Time I found another face
  D
(Maybe another day)
 A            E
Find an institution
  D
(Maybe another day)
A             E
Cash in on confusion
  D     A
(Maa-aaaay)

[Outro]
   A            E              D
e|------------------------------------------------------------|
B|-----5-5-----7/9-7/9-7-5-----7/9-7/9-7-5-----3-----3---3/5--|
G|-6---------6---------------6---------------6-----4---4------|
D|------------------------------------------------------------|
A|------------------------------------------------------------|
E|------------------------------------------------------------|
   A            E              D
e|------------------------------------------------------------|
B|-----5-5-----7/9-7/9-7-5-----7/9-7/9-7-5-----3-----3---3/5--|
G|-6---------6---------------6---------------6-----4---4------|
D|------------------------------------------------------------|
A|------------------------------------------------------------|
E|------------------------------------------------------------|
   A            E              D
e|------------------------------------------------------------|
B|-----5-5-----7/9-7/9-7-5-----7/9-7/9-7-5-----3-----3---3/5--|
G|-6---------6---------------6---------------6-----4---4------|
D|------------------------------------------------------------|
A|------------------------------------------------------------|
E|------------------------------------------------------------|
                              Maayyybe another day
   A            E              D
e|------------------------------------------------------------|
B|-----5-5-----7/9-7/9-7-5-----7/9-7/9-7-5-----3-----3---3/5--|
G|-6---------6---------------6---------------6-----4---4------|
D|------------------------------------------------------------|
A|------------------------------------------------------------|
E|------------------------------------------------------------|
                               Maaaayyyyyy
   A
e|----------------------------|
B|----------------------------|
G|-6--------------------------|
D|----------------------------|
A|----------------------------|
E|----------------------------|

            
            
Suggest correction
Creating personal tab
Creating personal tab
You can edit any tab online and save it as your Personal.

You can edit, replace or remove any tab part or add personal notes – all changes will be seen only by you.

Personal tabs can be accessed anytime from any device, even offline.
Learn more »
Give kudos to tab author, rate the tab!
1 2 3 4 5
comments
print report bad tab
guest
You may want to rate the tab now too:
select rating
Wanna post a correction for this tab? Suggest correction