Oops, an error
Loading. Please wait.

They Put A Body In The Bayou chords

1,231 views 18 this week
1 commentread comment
1 2 3 4 5
x 4
add to favorites
×
Save as Personal and add changes to this tab that will be seen only by you. Learn more ›
×
You can save this tab as Personal to edit and correct it or add notes. All changes will be seen only by you. Learn more »
launch autoscroll
font size
0
reset
transpose
0
reset
display chords
guitar tuner
edit
Autoscroll
slow
fast
+/-
esc
set tempo
stop
Strumming
There is no strumming pattern for this song yet. and get +5 IQ
The Orwells - They Put A Body In The Bayou
Terrible Human Beings - 2017
https://www.youtube.com/watch?v=xvoKjjF6Yf0

[Intro]
E     G     D     A
E     G     D     A
E     G     D     A
E     G     D     A

[Verse 1]
E       G      D      A
  They never came to town
E      G      D      A
  He really gets me down
E      G        D        A
  Take off that plastic crown
E      G          D       A
  Coke nose and a pretty sound

[Pre-Chorus]
E     G             D
  Alright, make it quick
      A             E
Good songs make ya rich
      G             D
That feeling, it'll pass
     A             E
Good boys come in last
    G           D
Bad girl by my side
        A            E
Popping pills on the fly
      G            D
Gold grave when I die

[Chorus 1]
   A           E    G    D
I came by to see
       A         E   G    
I just had to know
D             A            E       G
  Who put the body in the bayou?
D              A              E     G    D   A
  Who left the tracks on the road?

[Verse 2]
E      G     D        A    
  Told me; "Act your age."
E        G         D      A
  That's why she's underage
E          G              D       A
  Said her papa hates the Federales and
E          G                  D            A
  When he drinks too much, he smacks her face

[Pre-Chorus]
E     G             D
  Alright, make it quick
      A             E
Good songs make ya rich
      G             D
That feeling, it'll pass
     A             E
Good boys come in last
    G           D
Bad girl by my side
        A            E
Popping pills on the fly
      G            D
Gold grave when I die

[Chorus 2]
   A           E    G    D
I came by to see
       A         E   G    
I just had to know
D             A            E       G
  Who put the body in the bayou?
D              A              E     G    D   A
  Who left the tracks on the road?

[Solo]
E     E     E     E

   E      G     D      A
e|----------------------------------------|
B|-10b-----------------10------10---10-8--|
G|----------------------------------------|
D|----------------------------------------|
A|----------------------------------------|
E|----------------------------------------|
   E      G     D      A
e|----------------------------------------|
B|-10b-----------------10------10---10-8--|
G|----------------------------------------|
D|----------------------------------------|
A|----------------------------------------|
E|----------------------------------------|
   E      G     D      A
e|----------------------------------------|
B|-10b-----------------10------10---10-8--|
G|----------------------------------------|
D|----------------------------------------|
A|----------------------------------------|
E|----------------------------------------|
   E      G     D      A
e|----------------------------------------|
B|-10b-----------------10------10---10-8--|
G|----------------------------------------|
D|----------------------------------------|
A|----------------------------------------|
E|----------------------------------------|

[Chorus 3]
   A           E    G    D
I came by to see
       A         E   G    
I just had to know
D             A            E       G
  Who put the body in the bayou?
D              A              E     G    D    A
  Who left the tracks on the road?
E

===============================================

 b = bend string

===============================================

            
            
Suggest correction
Creating personal tab
Creating personal tab
You can edit any tab online and save it as your Personal.

You can edit, replace or remove any tab part or add personal notes – all changes will be seen only by you.

Personal tabs can be accessed anytime from any device, even offline.
Learn more »
comments
print report bad tab
1 comment total.
0 reply
evans90 10 Aug 30, 2017 09:43 PM

Accurate!

guest
You may want to rate the tab now too:
select rating
Wanna post a correction for this tab? Suggest correction