Oops, an error
Loading. Please wait.

Vacation bass

67 views 1 this week
1 commentread comment
1 2 3 4 5
3 more votes to show rating
add to favorites
×
Save as Personal and add changes to this tab that will be seen only by you. Learn more ›
×
You can save this tab as Personal to edit and correct it or add notes. All changes will be seen only by you. Learn more »
launch autoscroll
font size
0
reset
guitar tuner
edit
Autoscroll
slow
fast
+/-
esc
set tempo
stop
About this tab version
Here ya go harleythrhippo, this ones for you. Was this info helpful? Yes No
   The Orwells - Vacation
Terrible Human Beings - 2017
_________________________________________________________________________________

[Intro]

G|--------------------------|---------------------------|
D|--------------------------|---------------------------|
A|--------------------------|---------------------------|
E|--------------------------|---------------------------|

G|--------------------------|---------------------------|
D|--------------------------|---------------------------|
A|--------------------------|---------------------------|
E|--------------------------|---------------------------|

   B                          E
G|--------------------------|---------------------------|
D|--------------------------|-2---x-2-------------------|
A|-2---x-2------------------|---------------------------|
E|--------------------------|---------------------------|

   F#                         G
G|--------------------------|---------------------------|
D|-3---x-3------------------|-5---x-5-------------------|
A|--------------------------|---------------------------|
E|--------------------------|---------------------------|

[Verse 1]

B                          E
The failed promises that took you far

G|--------------------------|--------------------------|
D|--------------------------|-2---x-2-----0-2---0-2---0|
A|-2---x-2-----0-2---0-2---0|--------------------------|
E|--------------------------|--------------------------|

           F#                     G
Now you got, awaiting enemies in your backyard

G|--------------------------|--------------------------|
D|-4---x-4-----0-4---0-4---0|-5---x-5-----0-5---0-5---0|
A|--------------------------|--------------------------|
E|--------------------------|--------------------------|

B                               E
 Stepping from face to face to make your mark, runnin' up

G|--------------------------|--------------------------|
D|--------------------------|-2---x-2-----0-2---0-2---0|
A|-2---x-2-----0-2---0-2---0|--------------------------|
E|--------------------------|--------------------------|

F#                        G
  A human staircase to a guy in the star

G|--------------------------|--------------------------|
D|-4---x-4-----0-4---0-4---0|-5---x-5-----0-5---0-5---0|
A|--------------------------|--------------------------|
E|--------------------------|--------------------------|

   G
G|--------------------------------|
D|--------------------------------|
A|--------------------------------|
E|-3---3---3---3---3---3---3---3--|

[Chorus 1]

D              G
Turn off your television

G|--------------------------------|--------------------------------|
D|--------------------------------|--------------------------------|
A|-5---5-5---5-5-----5-5---5-5-5-5|--------------------------------|
E|--------------------------------|-3---3-3---3-3-----3-3---3-3-2-2|

E                A
Your permission kills civilians

G|--------------------------------|--------------------------------|
D|--------------------------------|--------------------------------|
A|--------------------------------|--------------------------------|
E|-0---0-0---0-0-----0-0---0-0-0-0|-5---5-5---5-5-----5-5---5-5-5-5|

D           G
No one can feel your vision

G|--------------------------------|--------------------------------|
D|--------------------------------|--------------------------------|
A|-5---5-5---5-5-----5-5---5-5-5-5|--------------------------------|
E|--------------------------------|-3---3-3---3-3-----3-3---3-3-2-2|

        E            A
They're on vacation, masturbating

G|--------------------------------|--------------------------------|
D|--------------------------------|--------------------------------|
A|--------------------------------|--------------------------------|
E|-0---0-0---0-0-----0-0---0-0-0-0|-5---5-5---5-5-----5-5---5-5-5-5|

[Main Riff]

G|-----------------------------------|----------------------------------------|
D|-----------------------------------|----------------------------------------|
A|-----------------------------------|----------------------------------------|
E|-----------------------------------|----------------------------------------|

G|-----------------------------------|----------------------------------------|
D|-----------------------------------|----------------------------------------|
A|-----------------------------------|----------------------------------------|
E|-----------------------------------|----------------------------------------|

   B                                    E
G|-----------------------------------|----------------------------------------|
D|-----------------------------------|--14---16\14~---------------------------|
A|-14--14----14----17-----14----17---|----------------------------------------|
E|-----------------------------------|----------------------------------------|

   F#                                 G
G|-14---14-----11-----9-----11~------|--16---16-----14----11-----9------7\----|
D|-----------------------------------|----------------------------------------|
A|-----------------------------------|----------------------------------------|
E|-----------------------------------|----------------------------------------|

[Verse 2]

B                            E
 Could be a better a way to right these wrongs

G|--------------------------|--------------------------|
D|--------------------------|-2---x-2-----0-2---0-2---0|
A|-2---x-2-----0-2---0-2---0|--------------------------|
E|--------------------------|--------------------------|

F#                         G
 Than drinking heavily and playing songs

G|--------------------------|--------------------------|
D|-4---x-4-----0-4---0-4---0|-5---x-5-----0-5---0-5---0|
A|--------------------------|--------------------------|
E|--------------------------|--------------------------|

B                         E
 These possibilities that plague your mind

G|--------------------------|--------------------------|
D|--------------------------|-2---x-2-----0-2---0-2---0|
A|-2---x-2-----0-2---0-2---0|--------------------------|
E|--------------------------|--------------------------|

F#                            G
Some better kept, some better left behind

G|--------------------------|--------------------------|
D|-4---x-4-----0-4---0-4---0|-5---x-5-----0-5---0-5---0|
A|--------------------------|--------------------------|
E|--------------------------|--------------------------|

   G
G|--------------------------------|--------------------------------|
D|--------------------------------|--------------------------------|
A|--------------------------------|-10--10--10--10--10--10--10--10-|
E|-3---3---3---3---3---3---3---3/-|--------------------------------|

[Chorus 2]

D              G
Turn off your television

G|--------------------------------|--------------------------------|
D|--------------------------------|--------------------------------|
A|-5---5-5---5-5-----5-5---5-5-5-5|--------------------------------|
E|--------------------------------|-3---3-3---3-3-----3-3---3-3-2-2|

E                A
Your permission kills civilians

G|--------------------------------|--------------------------------|
D|--------------------------------|--------------------------------|
A|--------------------------------|--------------------------------|
E|-0---0-0---0-0-----0-0---0-0-0-0|-5---5-5---5-5-----5-5---5-5-5-5|

D           G
No one can feel your vision

G|--------------------------------|--------------------------------|
D|--------------------------------|--------------------------------|
A|-5---5-5---5-5-----5-5---5-5-5-5|--------------------------------|
E|--------------------------------|-3---3-3---3-3-----3-3---3-3-2-2|

        E            A
They're on vacation, masturbating

G|--------------------------------|--------------------------------|
D|--------------------------------|--------------------------------|
A|--------------------------------|--------------------------------|
E|-0---0-0---0-0-----0-0---0-0-0-0|-5---5-5---5-5-----5-5---5-5-5-5|

D             G
Call off your reservations

G|--------------------------------|--------------------------------|
D|--------------------------------|--------------------------------|
A|-5---5-5---5-5-----5-5---5-5-5-5|--------------------------------|
E|--------------------------------|-3---3-3---3-3-----3-3---3-3-2-2|

E                   A
Sell your soul for useless children

G|--------------------------------|--------------------------------|
D|--------------------------------|--------------------------------|
A|--------------------------------|--------------------------------|
E|-0---0-0---0-0-----0-0---0-0-0-0|-5---5-5---5-5-----5-5---5-5-5-5|

D            G
 Arrange the information

G|--------------------------------|--------------------------------|
D|--------------------------------|--------------------------------|
A|-5---5-5---5-5-----5-5---5-5-5-5|--------------------------------|
E|--------------------------------|-3---3-3---3-3-----3-3---3-3-2-2|

E            A
Decimate the population

G|--------------------------------|--------------------------------|
D|--------------------------------|--------------------------------|
A|--------------------------------|--------------------------------|
E|-0---0-0---0-0-----0-0---0-0-0-0|-5---5-5---5-5-----5-5---5-5-5-5|

[Outro]

G|-----------------------------------|----------------------------------------|
D|-----------------------------------|----------------------------------------|
A|-----------------------------------|----------------------------------------|
E|-----------------------------------|----------------------------------------|

G|-----------------------------------|----------------------------------------|
D|-----------------------------------|----------------------------------------|
A|-----------------------------------|----------------------------------------|
E|-----------------------------------|----------------------------------------|

************************************

| x   Dead note
| /   Slide up
| \   Slide down
| ~   Hold note (normally means vibrato I know)

************************************

            
            
Suggest correction
Creating personal tab
Creating personal tab
You can edit any tab online and save it as your Personal.

You can edit, replace or remove any tab part or add personal notes – all changes will be seen only by you.

Personal tabs can be accessed anytime from any device, even offline.
Learn more »
Give kudos to tab author, rate the tab!
1 2 3 4 5
comments
print report bad tab
1 comment total.
+1 reply
harleythrhippo 10 Jul 05, 2017 02:07 PM

Thanks so much!

guest
You may want to rate the tab now too:
select rating
Wanna post a correction for this tab? Suggest correction