Oops, an error
Loading. Please wait.

Everytime You Cry tab

901 views 6 this week
2 commentsread comments
1 2 3 4 5
x 7
add to favorites
×
Save as Personal and add changes to this tab that will be seen only by you. Learn more ›
×
You can save this tab as Personal to edit and correct it or add notes. All changes will be seen only by you. Learn more »
launch autoscroll
font size
0
reset
how to read this tab
guitar tuner
edit
Autoscroll
slow
fast
+/-
esc
set tempo
stop
Capo 2
   
[Intro] 
   A                D/A
e-----------0--------------2-----|
B---------2---2----------3---3---|
G-------2--------------2---------|
D--------------------------------|
A--------------------------------|
E--------------------------------|4x

[Verse]

        I'm  not   the one    to tell   you   what  clothes to wear
e-----0-------2---------0-------2---------0-------2---------0-------2----|
B---2---2---3---3-----2---2---3---3-----2---2---3---3-----2---2---3---3--|
G-2-------2---------2-------2---------2-------2---------2-------2--------|
D------------------------------------------------------------------------|
A------------------------------------------------------------------------|
E------------------------------------------------------------------------|

        I'm   not    the one    who talks   about your  hair
e----------------------------------------------0-------2--------0-------2---|
B-----0---------3----------0---------3-------2---2---3---3----2---2---3---3-|
G---0---0-----0---0------0---0-----0---0---2-------2--------2-------2-------|
D---------------------------------------------------------------------------|
A---------------------------------------------------------------------------|
E-3--------3----------3---------3-------------------------------------------|

        I'm      not     the one   to show   you     how I feel inside
e-----0-------2---------0-------2---------0-------2---------0-------2----|
B---2---2---3---3-----2---2---3---3-----2---2---3---3-----2---2---3---3--|
G-2-------2---------2-------2---------2-------2---------2-------2--------|
D------------------------------------------------------------------------|
A------------------------------------------------------------------------|
E------------------------------------------------------------------------|
       
        I'm     not   the one to say how    much I   care
e----------------------------------------------0-------2--------0-------2---|
B-----0---------3----------0---------3-------2---2---3---3----2---2---3---3-|
G---0---0-----0---0------0---0-----0---0---2-------2--------2-------2-------|
D---------------------------------------------------------------------------|
A---------------------------------------------------------------------------|
E-3--------3----------3---------3-------------------------------------------|


[Chorus]
A             E
Everytime you cry
   G                     D
I cry just a little bit, cry just a little bit
A                E      G
When you say goodbye, I die just a little bit
D                     A
cry just a little bit more


[Verse]

        I know it's late, I guess I should have called today
e-----0-------2---------0-------2---------0-------2---------0-------2----|
B---2---2---3---3-----2---2---3---3-----2---2---3---3-----2---2---3---3--|
G-2-------2---------2-------2---------2-------2---------2-------2--------|
D------------------------------------------------------------------------|
A------------------------------------------------------------------------|
E------------------------------------------------------------------------|

        I know you're tired of waiting by the phone
e----------------------------------------------0-------2--------0-------2---|
B-----0---------3----------0---------3-------2---2---3---3----2---2---3---3-|
G---0---0-----0---0------0---0-----0---0---2-------2--------2-------2-------|
D---------------------------------------------------------------------------|
A---------------------------------------------------------------------------|
E-3--------3----------3---------3-------------------------------------------|

        I know you said-you just don't know how long you'll wait
e-----0-------2---------0-------2---------0-------2---------0-------2----|
B---2---2---3---3-----2---2---3---3-----2---2---3---3-----2---2---3---3--|
G-2-------2---------2-------2---------2-------2---------2-------2--------|
D------------------------------------------------------------------------|
A------------------------------------------------------------------------|
E------------------------------------------------------------------------|
       
        I know that you can live your life alone
e----------------------------------------------0-------2--------0-------2---|
B-----0---------3----------0---------3-------2---2---3---3----2---2---3---3-|
G---0---0-----0---0------0---0-----0---0---2-------2--------2-------2-------|
D---------------------------------------------------------------------------|
A---------------------------------------------------------------------------|
E-3--------3----------3---------3-------------------------------------------|


[Chorus]
A             E
Everytime you cry
   G                     D
I cry just a little bit, cry just a little bit
A                E      G
When you say goodbye, I die just a little bit
D                     E
cry just a little bit more


[Bridge]
E                D
In a world where there's no one to turn to
E                          D
In a world where you think there's no one but you


[Solo]
        
e-----0-------2---------0-------2---------0-------2---------0-------2----|
B---2---2---3---3-----2---2---3---3-----2---2---3---3-----2---2---3---3--|
G-2-------2---------2-------2---------2-------2---------2-------2--------|
D------------------------------------------------------------------------|
A------------------------------------------------------------------------|
E------------------------------------------------------------------------|
        
e----------------------------------------------0-------2--------0-------2---|
B-----0---------3----------0---------3-------2---2---3---3----2---2---3---3-|
G---0---0-----0---0------0---0-----0---0---2-------2--------2-------2-------|
D---------------------------------------------------------------------------|
A---------------------------------------------------------------------------|
E-3--------3----------3---------3-------------------------------------------|

    But everytime you need someone to dry your eyes
e-----0-------2---------0-------2---------0-------2---------0-------2----|
B---2---2---3---3-----2---2---3---3-----2---2---3---3-----2---2---3---3--|
G-2-------2---------2-------2---------2-------2---------2-------2--------|
D------------------------------------------------------------------------|
A------------------------------------------------------------------------|
E------------------------------------------------------------------------|
    You call my name and know that I'll be there  
e----------------------------------------------0-------2--------0-------2---|
B-----0---------3----------0---------3-------2---2---3---3----2---2---3---3-|
G---0---0-----0---0------0---0-----0---0---2-------2--------2-------2-------|
D---------------------------------------------------------------------------|
A---------------------------------------------------------------------------|
E-3--------3----------3---------3-------------------------------------------|


[Chorus]
A             E
Everytime you cry
   G                     D
I cry just a little bit, cry just a little bit
A                E      G
When you say goodbye, I die just a little bit
D                     A
cry just a little bit more
A             E
Everytime you cry
   G                     D
I cry just a little bit, cry just a little bit
A                E      G
When you say goodbye, I die just a little bit
D                     A
cry just a little bit more

   A                D
e-----------0--------------2-----|
B---------2---2----------3---3---|
G-------2--------------2---------|
D--------------------------------|
A--------------------------------|
E--------------------------------|8x

            
            
Suggest correction
Creating personal tab
Creating personal tab
You can edit any tab online and save it as your Personal.

You can edit, replace or remove any tab part or add personal notes – all changes will be seen only by you.

Personal tabs can be accessed anytime from any device, even offline.
Learn more »
comments
print report bad tab
2 comments total.
+1 reply
guillermopeitto 10,794 Jun 25, 2016 12:28 PM

This is a great song and great tab too !!

+1 reply
delb0y1967 3,614 Apr 17, 2017 11:29 AM

5 BIG stars :)

guest
You may want to rate the tab now too:
select rating
Wanna post a correction for this tab? Suggest correction