Oops, an error
Loading. Please wait.

Sorry tab

version 1
version 1

Whole song

434 views 1 this week
2 commentsread comments
1 2 3 4 5
2 more votes to show rating
add to favorites
×
Save as Personal and add changes to this tab that will be seen only by you. Learn more ›
×
You can save this tab as Personal to edit and correct it or add notes. All changes will be seen only by you. Learn more »
launch autoscroll
font size
0
reset
how to read this tab
guitar tuner
edit
Autoscroll
slow
fast
+/-
esc
set tempo
stop
Author
e|----------------------------------|
B|----------------------------------|
G|----------------------------------|
D|----------------------------------|
A|-12-12-14-12----------------------|
E|-10-10-10-10----------------------|


Then:

e|--------------------------------------|
B|--------------------------------------|
G|-----14--------11---------------------|
D|-12-------12--------------------------|
A|--------------------------------------|
E|--------------------------------------|


e|-----------------------------------------------------|
B|-----------------------------------------------------|
G|-----11---14---11-------11---14---11-----------------|
D|-12-------------------12--------------12-------------|
A|-----------------------------------------------------|
E|-----------------------------------------------------|


Verse:

e|--------------------|
B|--------------------|
G|--------12----------|
D|-12-----12----------|
A|-12-----10----------|
E|-10-----------------|

A few times each, then end it with:

e|--------------------------------------|
B|--------------------------------------|
G|-14-----------------------------------|
D|-14-----------------------------------|
A|-12-----------------------------------|
E|--------------------------------------|


The clean sounding bit:

e|---------------------------------------|
B|-10----7----3----5---------------------|
G|-11----8----4----6---------------------|
D|-12----9----5----7---------------------|
A|-12----9----5----7---------------------|
E|---------------------------------------|


When Tom sings 'Told you soooo....'
e|-------------------------------------------------------------|
B|-------------------------------------------------------------|
G|-------------14----------------------11----------------------|
D|-12-12---12-----12-------12-12---12----12--------------------|
A|-------------------------------------------------------------|
E|-------------------------------------------------------------|


Tabbed by Rich Whiting (richardwhiting87@hotmail.com)

            
            
Suggest correction
Creating personal tab
Creating personal tab
You can edit any tab online and save it as your Personal.

You can edit, replace or remove any tab part or add personal notes – all changes will be seen only by you.

Personal tabs can be accessed anytime from any device, even offline.
Learn more »
Give kudos to tab author, rate the tab!
1 2 3 4 5
comments
print report bad tab
2 comments total.
0 reply
robbie 335 Nov 23, 2005 05:52 AM

Great tab just one correction (I think), in the "clean sounding bit", I think the second chord is actually minor:

e|-----
B|--7--
G|--7--
D|--9--
A|--9--
E|-----

Otherwise fantastic tab, well done!!

0 reply
yoshima 572 Jan 26, 2007 03:50 AM

Yeah the clean bit is wrong....the second chord should be the one shown above...

Also the 4th chord in the clean bit should be the same as the first one or;

e|--5--
B|--7--
G|--7--
D|--7--
A|--5--
E|--5--

guest
You may want to rate the tab now too:
select rating
Wanna post a correction for this tab? Suggest correction