Oops, an error
Loading. Please wait.

Come Saturday bass

2,029 views 1 this week
no commentswrite comment
1 2 3 4 5
1 last vote to show rating
add to favorites
×
Save as Personal and add changes to this tab that will be seen only by you. Learn more ›
×
You can save this tab as Personal to edit and correct it or add notes. All changes will be seen only by you. Learn more »
launch autoscroll
font size
0
reset
guitar tuner
edit
Autoscroll
slow
fast
+/-
esc
set tempo
stop
Author
-------------------------------------------------------------------------------
			     Come Saturday - The Pains of Being Pure at Heart
-------------------------------------------------------------------------------

Tabbed By : bud_spencer
e-mail:

Tuning: Standard

Verse 1                                        11s and 12s
G|------------------------------------------------------------------------------------|
D|------------------------------------------------------------------------------------|
A|-7-7-777-7-77-7777-------------------7-7-777-11-1111-11111111--12-12-11-9-99-999-11-|
E|--------------------55-444-2-22-2222------------------------------------------------|

G|-------------------------------------------------------------------------------|
D|-------------------------------------------------------------------------------|
A|-7-7-777-7-77-7777------------------7-7-777-11-1111-11111111-------------------|
E|-------------------55-444-2-22-2222---------------------------5-5-4-5-55-5555--|


Verse 2                                        11s and 12s
G|----------------------------------------------------------------------------------|
D|----------------------------------------------------------------------------------|
A|-7-7-777-7-77-7777------------------7-7-777-11-1111-11111111-12-12-11-9-99-999-11-|
E|-------------------55-444-2-22-2222-----------------------------------------------| (2x)

G|-------------------------------------------------------------------------------|
D|-------------------------------------------------------------------------------|
A|-7-7-777-7-77-7777------------------7-7-777-11-1111-11111111-------------------|
E|-------------------55-444-2-22-2222---------------------------5-5-4-5-55-5555--|


Chorus
G|------------------------------------------------------------------------|
D|------------------------------------------------------------------------|
A|---------9-99-9999---------7-77-7777---------9-99-9999--------7-77-7777-|
E|-7-7-777-----------5-5-555-----------7-7-777-----------5-5-555----------|

G|------------------------------------------------------------------------|
D|------------------------------------------------------------------------|
A|---------9-99-9999---------7-77-7777---------9-99-9999------------------|
E|-7-7-777-----------5-5-555-----------7-7-777-----------5-5-555-7-77-7777|

Chorus variation
G|-------------------------------------------------------------------------|
D|-------------------------------------------------------------------------|
A|-------------------9-9-999-9-99-9999-------------------7-77-777-7-77-7777|
E|-7-7-777-7-77-7777-------------------5-5-555-5-55-5555-------------------|

G|-------------------------------------------------------------------------|
D|-------------------------------------------------------------------------|
A|-------------------9-9-999-9-99-9999-------------------------------------|
E|-7-7-777-7-77-7777-------------------5-5-555-5-55-5555-7-77-777-7-77-7777|

End
G|-------------------------------------------------------------------------------|
D|-------------------------------------------------------------------------------|
A|-7-7-777-7-77-7777------------------7-7-777-11-1111-11111111-------------------|
E|-------------------55-444-2-22-2222---------------------------5-5-4-5-55-5555--| (2x - 
time end on A7)


2x Verse 1
1x Chorus
1x Verse 2
1x Chorus
1x Verse 1
1x Chorus variation
1x End

That's it.....

| /  slide up
| \  slide down
| h  hammer-on
| p  pull-off
| ~  vibrato
| +  harmonic
| x  Mute note
===============================================================================

            
            
Suggest correction
Creating personal tab
Creating personal tab
You can edit any tab online and save it as your Personal.

You can edit, replace or remove any tab part or add personal notes – all changes will be seen only by you.

Personal tabs can be accessed anytime from any device, even offline.
Learn more »
Give kudos to tab author, rate the tab!
1 2 3 4 5
comments
print report bad tab
guest
You may want to rate the tab now too:
select rating
Wanna post a correction for this tab? Suggest correction