Oops, an error
Loading. Please wait.

Pink Cherry bass

474 views 3 this week
no commentswrite comment
1 2 3 4 5
3 more votes to show rating
add to favorites
×
Save as Personal and add changes to this tab that will be seen only by you. Learn more ›
×
You can save this tab as Personal to edit and correct it or add notes. All changes will be seen only by you. Learn more »
launch autoscroll
font size
0
reset
guitar tuner
edit
Autoscroll
slow
fast
+/-
esc
set tempo
stop
Author
Bueno, esta es una de las tablaturas mas precisas que he hecho, ha valido la pena el 
un poquito para poderla sacar completa, la precisión que tiene es de un 98% y eso por 
detalles.

La cancion pertenece a una banda visual japonesa llamada Panic Channel, asi como tal y 
la banda americana The Panic Channel.

En fin, ahi dejo la tablatura, me tarde una hora maximo entre verificar e 
interrupciones imprevistas.

Espero den un buen ranking y que valga el callito que salio por tanto tiempo sin tocar bajo.


THIS SONG BELONGS TO THE JAPANESE VISUAL BAND, PANIC CHANNEL

“PINK CHERRY” – The Panic Channel


Bass tab de Ana Arias // Eri chan (Guitar-Voice from Aerodynamic BAND)

**Precisión 98%**

E A D G


(0:00) INTRO GUITARRA

(0:04)   INTRO BAJO
----------------------------------------|
----------------------------------------|
-----/10------3----7--8---8-10-8-7-5 ---|
----------------------------------------|


--------------------------------------------------------------------------|
--------------------------------------------------------------------------|
3-3-3-3-3-3-3-3—-7-7-7-7-7-7-7-7--8-8-8-8-8-8-8-8--10-10-10-8--10-10-10-8-|
--------------------------------------------------------------------------|


-------------------------------------------------------------|
-------------------------------------------------------------|
-3-3-3-3-3-3-3--7-7-7-7-7-7-7-7--8-8-8-8-8-8-8-8--10-8-7-5---|
-------------------------------------------------------------|


--------------------------------------------------------------------------|
--------------------------------------------------------------------------|
--3-3-3-3-3-3-3—-7-7-7-7-7-7-7-7--8-8-8-8-8-8-8-8--10-10-10-8--10-10-10-8-|
--------------------------------------------------------------------------|


-------------------------------------------------------------|
-------------------------------------------------------------|
-3-3-3-3-3-3-3--7-7-7-7-7-7-7-7--8-8-8-8-8-8-8-8--10-8-7-5---|
-------------------------------------------------------------|


-------------------------5-5----------------------------------------5-5------------------|
---------2-2--3-3--5-5--------5-5--3-3--2-2---------2-2--3-3--5-5---------5-5--3-3--2-2--|
---3-3----------------------------------------3-3----------------------------------------|
-----------------------------------------------------------------------------------------|

----------------------------5-5------------------------------|
---------2-2--3-3--5-5---------5-5--3-3--2-2-----------2-2---|
3-3----------------------------------------------3-----------|
-------------------------------------------------------------|

Verso

------------------------------------------------------------------------|
------------------------------------------------------------------------|
-3--3-3---------------------------3--3-3-----------------------5--3--2--|
----------5--5-5--1--1-1—3--3-3------------5--5-5--1--1-1---3-----------|

-------------------------------------------------------------------------|
-------------------------------------------------------------------------|
-3--3-3----------------------------3--3-3-----------------------5--3--2--|
----------5--5-5--1--1-1—3-0-1-5------------5--5-5--1--1-1---3-----------|

Intro de nuevo (diferente ritmo)

-------------------------------------------------------|
-------------------------------------------------------|
--3--3-3-3--7--7-7-7--8--8-8-8--10-10-10-8--10-10-10-8-|
-------------------------------------------------------|

-------------------------------------------|
-------------------------------------------|
--3--3-3-3--7--7-7-7--8--8-8-8--10-8-7-5---|
-------------------------------------------|


Verso 2 (Diferente ritmo)

-----------------------------------------------------------|
-----------------------------------------------------------|
--3-3----------------------3-3--------------------5--3--2--|
--------5-5---1-1---3-3----------5-5--1-1---3--------------|

----------------------------------------------------------------|
----------------------------------------------------------------|
--3-3----------------------------3-3-------------------5--3--2--|
--------5-5---1-1---3--0--1--5---------5-5--1-1---3-------------|


Pre coro (este no es tan preciso, pero suena bien :D )

-----------------------------------------------------------|
-----------------------------------------------------------|
-------0-0--2-2-3-3-------2-2--3-3--5-5---3-/15-15--0-0----|
--1-1------------------3-3-------------------------------3-|      3x

---------------------------------------------------------------------------------------------|
---------------------------------------------------------------------------------------------|
-------0-0--2-2-3-3-------2-2--3-3--5-5---3---3---3---2---3--3--3--3--3---3---3---2---3/15---|
--1-1------------------3-3-------------------------------------------------------------------|


CORO

----------------------------------------------------------------------------------|
-------7-7--5-5--4-4--------------------------------------------------------------|
-5-5-----------------------7-7--5-5--4-4-------9-9--7-7--5-5--------4-5------5-7--|
-----------------------5-5----------------7-7--------------------3---------5------|


---------------------------------------------------------------------------|
-------7-7--5-5--4-4-------------------------------------------------------|
-5-5-----------------------7-7--5-5--4-4-------9-9--7-7--5-5--5--4--2--0---|
-----------------------5-5----------------7-7------------------------------|

----------------------------------------------------------------------------------|
-------7-7--5-5--4-4--------------------------------------------------------------|
-5-5-----------------------7-7--5-5--4-4-------9-9--7-7--5-5--------4-5------5-7--|
-----------------------5-5----------------7-7--------------------3---------5------|


---------------------------------------------------------------------------|
-------7-7--5-5--4-4-------------------------------------------------------|
-5-5-----------------------7-7--5-5--4-4-------9-9--7-7--5-5--5--4--2--0---|
-----------------------5-5-----------------7-7-----------------------------|


Puente (4x)
 --------------------------------------------------------------------------------|
---------------------------------------------------------------------------------|
--------4-4-5-5-4-5--------4-4-7-7-4-7-------------------------------------------|
--3-3-------------------5-5-------------------7-7-7-5-7-7-7-5-7-7-7-5-7-7-7-5----|


REPETIR Pre coro

REPETIR CORO  (2x)


Outro

--------------------------------------------------------------------------|
--------------------------------------------------------------------------|
3-3-3-3-3-3-3-3—-7-7-7-7-7-7-7-7--8-8-8-8-8-8-8-8--10-10-10-8--10-10-10-8-|
--------------------------------------------------------------------------|


-------------------------------------------------------------|
-------------------------------------------------------------|
-3-3-3-3-3-3-3--7-7-7-7-7-7-7-7--8-8-8-8-8-8-8-8--10-8-7-5---|
-------------------------------------------------------------|


--------------------------------------------------------------------------|
--------------------------------------------------------------------------|
--3-3-3-3-3-3-3—-7-7-7-7-7-7-7-7--8-8-8-8-8-8-8-8--10-10-10-8--10-10-10-8-|
--------------------------------------------------------------------------|

-------------------------------------------------|
-------------------------------------------------|
-3-3-3-3-3-3-3—7-7-7-7-7-7-7-7--8-8-8-8-8-8-8-8--|
-------------------------------------------------|

-----------------------------------------|
-----------------------------------------|
--10-8-7-5--10-10-8-7-5--10-10-8-7-5-3---|
-----------------------------------------|

______________________________________________

2x  - Repetir 2 veces
3x  -    “    3   “
/   - Slide


Espero sea entendible y bueno, ya luego hare tabs de mas canciones de JROCK, JMETAL Y MAS VISUAL

Todo porque en mi banda las tocamos y han salido por la necesidad :D
Gracias a quienes la atiendan y espero pueda serles util.

Mis datos para cualquier duda:

Eri chan // Anna A.
AERODYNAMIC BAND (Guitar/Voice)
www.myspace.com/aerodynamicband

Aguascalientes, Ags.

ananime89@hotmail.com

            
            
Suggest correction
Creating personal tab
Creating personal tab
You can edit any tab online and save it as your Personal.

You can edit, replace or remove any tab part or add personal notes – all changes will be seen only by you.

Personal tabs can be accessed anytime from any device, even offline.
Learn more »
Give kudos to tab author, rate the tab!
1 2 3 4 5
comments
print report bad tab
guest
You may want to rate the tab now too:
select rating
Wanna post a correction for this tab? Suggest correction