Oops, an error
Loading. Please wait.

Bloom tab

version 1
version 1

Whole song

  • This is the most accurate version. Already posted ... Show more

Interactive

Video

242,112 views 1,215 this week
12 commentsread comments
1 2 3 4 5
x 304
add to favorites
×
Save as Personal and add changes to this tab that will be seen only by you. Learn more ›
×
You can save this tab as Personal to edit and correct it or add notes. All changes will be seen only by you. Learn more »
launch autoscroll
font size
0
reset
how to read this tab
guitar tuner
edit
Autoscroll
slow
fast
+/-
esc
set tempo
stop
I had been looking for the tabs for this song but I couldnt find one so I ended up 
tabbing it out from a tutorial on youtube. Hope this helps : 
Here is the video is want to try with it
http://www.youtube.com/watch?v=ne1jXZZmVVA

Capo on 6


E|----------------------------------------------------|
B|--1-------------1--------------------1--------------|
G|---------0------------0------------------------0----|
D|------2------------2-------------2-----------0------|
A|--0----------0------------0*--------------0h2-------|
E|----------------------------------------------------|

*There is a rest for a second before you do to the next note

E|--------------------------------------------------|
B|-----------1-----------1----------1---------------|
G|-----------------0-------------0--------0---------|
D|--------0-----------0------0h2-------2----0-------|
A|--2h3--------3------------------------------------|
E|--------------------------------------------------|

E|-----------------------------------------------*-----------------------------------------|
B|--3-----------3--------1------------1--------0-*----------0---------0-----------0--------|
G|--------0----------0-----------0---------0-----*----0-----------0---------0-----------0--|
D|-----0----------0-----------0---------0--------*-0-----------0---------0-----------0-----|
A|-----------------------------------------------*-----------------------------------------|
E|--3-------3------------3---------3-----------3-*-------3------------3--------3-----------|

Play past the stars on every other play through.
First play through is the full score.

******************************
| /  Slide Up  
| \  Slide Down  
| h  Hammer On  
| p  Pull Off  
| b  Bend 
| r  Release 
| v  Vibrato
******************************

            
            
Suggest correction
Creating personal tab
Creating personal tab
You can edit any tab online and save it as your Personal.

You can edit, replace or remove any tab part or add personal notes – all changes will be seen only by you.

Personal tabs can be accessed anytime from any device, even offline.
Learn more »
comments
print report bad tab
12 comments total. Showing first comments.
+5 reply
kikyoino 71 Jan 19, 2013 03:09 PM

oh sorry forgot to mention the capo on 6 xD

+3 reply
JPili 72 Apr 14, 2013 10:17 PM

E|0-7-7p5\3---7-7p5\3-------------------------------------------------|
B|----------5---------3-----------------------------------------------|
G|--------------------------------------------------------------------|
D|--------------------------------------------------------------------|
A|--------------------------------------------------------------------|
E|--------------------------------------------------------------------|

This is the riff that plays the beginning :]

+5 reply
JPili 72 Apr 14, 2013 11:01 PM

E|0-7-7\5---7-7\3-----------------------------------------------------|
B|--------5-------3---------------------------------------------------|
G|--------------------------------------------------------------------|
D|--------------------------------------------------------------------|
A|--------------------------------------------------------------------|
E|--------------------------------------------------------------------|

I'm sorry, it's actually this :] New at this "playing by ear" thing

guest
You may want to rate the tab now too:
select rating
Wanna post a correction for this tab? Suggest correction