Oops, an error
Loading. Please wait.

Halcyon tab

version 1
version 1

Whole song

3,478 views 9 this week
2 commentsread comments
1 2 3 4 5
x 3
add to favorites
×
Save as Personal and add changes to this tab that will be seen only by you. Learn more ›
×
You can save this tab as Personal to edit and correct it or add notes. All changes will be seen only by you. Learn more »
launch autoscroll
font size
0
reset
how to read this tab
guitar tuner
edit
Autoscroll
slow
fast
+/-
esc
set tempo
stop
Author
Difficulty
-------------------------------------------------------------------------------
                             Halcyon - The Paper Kites
-------------------------------------------------------------------------------
Tabbed by: Finn Wright
E-mail:

This song is meant for two guitars, but the rhythm is nice by itself.

Intro:

e|---10--9---7-----7---5---2-----10--9---7-----7---5---2---------------------|
B|---------------------------------------------------------------------------|
G|---7---7---7-----7---5---2-----7---7---7-----7---5---2---------------------|
D|---------------------------------------------------------------------------|
A|---------------------------------------------------------------------------|
E|---------------------------------------------------------------------------|

Verse: D, A, D/B (Plays through whole song)

e|---2-----------2--------2-----------2--------2-----------2-----------------|
B|---------3-----------3--------3-----------3--------3-----------3-----------|
G|------2-----------2--------2-----------2--------2-----------2--------------|
D|---0--------0-----------0--------0-----------0--------0--------------------|
A|---------------------------------------------------------------------------|
E|---------------------------------------------------------------------------|

e|---2-----------------------------------------------------------------------|
B|---------3--2--------3-----------3--------3-----------3--------------------|
G|------2-----------2--------2-----------2--------2-----------2--------------|
D|---0-----------2--------0-----------0--------0-----------0-----------------|
A|------------0--------2--------2-----------2--------2-----------------------|
E|---------------------------------------------------------------------------|

e|---------------------------------------------------------------------------|
B|---3-----------3--------3--------2-----------------------------------------|
G|---------2-----------2--------2--------2-----Back to top of verse----------|
D|------0-----------0--------0--------2--------------------------------------|
A|---2--------2-----------2--------0-----------------------------------------|
E|---------------------------------------------------------------------------|

For the chorus, I am not completely sure what the rhythm guitarist does, 
but this works nicely with the lead and even on its own.

D, Em, F#m

e|---2-----------2-----------------------------------------------------------|
B|---------3-----------3--0-----------0---------2-----------2----------------|
G|------2-----------2-----------------------0---------------------2----------|
D|---0--------0-----------------2--------2------------4--------2-------------|
A|---------------------------2---------------------4-------------------------|
E|------------------------0--------0------------2--------2-------------------|

     We...                Can...                Love....

e|------------------------2-----------2--------------------------------------|
B|---0-----------0--------------3-----------3--------------------------------|
G|---------------------0-----2-----------2-----------------------------------|
D|---------2--------2-----0--------0-----------------------------------------|
A|------2--------------------------------------------------------------------|
E|---0--------0--------------------------------------------------------------|

     We    can    love...

Lead:

e|---------------------------------------------------------------------------|
B|---10--12--14-----15--14--12-----------------------------------------------|
G|---------------------------------------------------------------------------|
D|---------------------------------------------------------------------------|
A|---------------------------------------------------------------------------|
E|---------------------------------------------------------------------------|

     We can love... We can love...

e|---------------------------------------------------------------------------|
B|---10\7--5\3-----10\7--5\3-------------------------------------------------|
G|--------------2-------------2----------------------------------------------|
D|---------------------------------------------------------------------------|
A|---------------------------------------------------------------------------|
E|---------------------------------------------------------------------------|

e|---10--9---7-----7---5---2-----10--9---7-----7---5---2---------------------|
B|---------------------------------------------------------------------------|
G|---7---7---7-----7---5---2-----7---7---7-----7---5---2---------------------|
D|---------------------------------------------------------------------------|
A|---------------------------------------------------------------------------|
E|---------------------------------------------------------------------------|



************************************

| /   slide up
| \   slide down
| h   hammer-on
| p   pull-off
| ~   vibrato
| +   harmonic
| x   Mute note
| b   Bend
| pb  Pre-bend
| br  Bend release
| pbr Pre-bend release
| brb Bend release bend

************************************

            
            
Suggest correction
Creating personal tab
Creating personal tab
You can edit any tab online and save it as your Personal.

You can edit, replace or remove any tab part or add personal notes – all changes will be seen only by you.

Personal tabs can be accessed anytime from any device, even offline.
Learn more »
Give kudos to tab author, rate the tab!
1 2 3 4 5
comments
print report bad tab
2 comments total.
0 reply
luke-anakin 10 Mar 17, 2015 06:39 PM

I LOVE YOU IS THE FIRST TAB THAT TEACHES HOW TO PLAY THIS SONG'S RIFF I LOVE YOU YOURE MY HERO THX THX THX

0 reply
finnwright 139 Sep 23, 2015 04:17 AM

No worries mate!

guest
You may want to rate the tab now too:
select rating
Wanna post a correction for this tab? Suggest correction