Oops, an error
Loading. Please wait.

Halcyon tab

version 2
version 2

Whole song

873 views 9 this week
no commentswrite comment
1 2 3 4 5
x 4
add to favorites
×
Save as Personal and add changes to this tab that will be seen only by you. Learn more ›
×
You can save this tab as Personal to edit and correct it or add notes. All changes will be seen only by you. Learn more »
launch autoscroll
font size
0
reset
how to read this tab
guitar tuner
edit
Autoscroll
slow
fast
+/-
esc
set tempo
stop
Author
Difficulty
-------------------------------------------------------------------------------
                             Halcyon - The Paper Kites
-------------------------------------------------------------------------------
I didn't see any tabs for this song that I liked.. so I made my own. This is my first 
tab. :D

Tabbed by: Jess
E-mail: a_mai1298@yahoo.com

Tuning: Standard EADGBe


Chords: D, A, Bm, G

Intro/Verse


2nd guitar
    e|-10------9------7-------7------5----------2-----|
    B|------------------------------------------------|
    G|-11------9------7-------7------6----------4-----|
    D|------------------------------------------------|
    A|------------------------------------------------|
    E|------------------------------------------------|


1st Guitar

       D                                           A

You're free                      A lover   sinking in the
    e|-2-------2---2-------2---2-------2---2----------|
    B|-----3-----------3-----------3---------------2--|
    G|---2-------2---2-------2---2-------2------------|
    D|-0-----0-----0-----0-----0-----0-----0----------|
    A|---------------------------------------------0--|
    E|------------------------------------------------|

       Bm                                          A

       sea...                                 and we.....
    e|------------------------------------------------|
    B|-3-------3---3-------3---3-------3---3-2--------|
    G|-----4-----------4-----------4------------------|          and repeat :D
    D|---4-------4---4-------4---4-------4------------|
    A|-2-----2-----2-----2-----2-----2-----2-0--------|
    E|------------------------------------------------|


Chorus

2nd Guitar

   we..    can..   love.. we can love
e|-5-------7-------9-----------------10-----------------------------|
B|--------------------------------------10--------------------------|
G|-6-------7-------9-----------------------11\9\7--------11\9\7-----|
D|------------------------------------------------7/11\7--------11--|
A|------------------------------------------------------------------|
E|------------------------------------------------------------------|
   we..    can..   love.. we can loooove
e|-5-------7-------9-------------10-9-7-----------------------------|
B|------------------------------------------------------------------|
G|-6-------7-------9-------------11-9-7-----------------------------|
D|------------------------------------------------------------------|
A|------------------------------------------------------------------|
E|------------------------------------------------------------------|


1st Guitar

   A                                               D

   we          can         love        we    can   love
e|---------------------------------0---------------2-------2---2------2---2-------2---2------2---|
B|-2-------2---2-------2---2-----------2-------2-------3-----------3----------3-----------3------|
G|-----2-----------2-----------2-----------2---------2-------2---2------2---2-------2---2------2-|
D|---2-------2---2-------2---2-------2---2-------2-0-----0-----0-----0----0-----0-----0-----0----|
A|-0-----0-----0-----0-----0-----0-----0-----0---------------------------------------------------|
E|-----------------------------------------------------------------------------------------------|


   A                                               Bm A G

   we          can         love        we    can   loooove
e|---------------------------------0---------------------------------|
B|-2-------2---2-------2---2-----------2-------2---3--2--0-------0---|
G|-----2-----------2-----------2-----------2-----------------0-------|
D|---2-------2---2-------2---2-------2---2-------2---------0-------0-|
A|-0-----0-----0-----0-----0-----0-----0-----0-----2--0--------------|
E|-------------------------------------------------------3-----3-----|

   G

          and the birds will sing our song in Halcyon
e|-------------------------------------------------------------------|
B|-0-------0---0------0---0------0-----------------------------------|
G|-----0-----------0----------0--------------------------------------|
D|---0-------0---0------0---0------0---------------------------------|
A|-------------------------------------------------------------------|
E|-3-----3-----3-----3----3-----3------------------------------------|


repeat verse  :D
repeat ***chorus :D


***2nd Guitar in the second chorus is played a little differently

   we..    can..   love.. we can love
e|-5-------7-------9-----------------10-----------------------------|
B|--------------------------------------10----------10--------------|
G|-6-------7-------9-----------------------11\9\7------11\9\7-------|
D|------------------------------------------------7-----------7-----|
A|------------------------------------------------------------------|
E|------------------------------------------------------------------|
   we..    can..   love.. we can loooove
e|-5-------7-------9-------------10-9-7-----------------------------|
B|------------------------------------------------------------------|
G|-6-------7-------9-------------11-9-7-----------------------------|
D|------------------------------------------------------------------|
A|------------------------------------------------------------------|
E|------------------------------------------------------------------|

after this, Bm is played like this
I guess this is the bridge ?_?

e|---------0-----------0-----------0---------|
B|-3-----------3-----------3-----------3-2---|
G|-----4-----------4-----------4-------------|
D|---4-------4---4-------4---4-------4-------|
A|-2-----2-----2-----2-----2-----2-----2-0---|
E|-------------------------------------------|

A is also played similarly at the end

e|---------0-----------0-----------0-----------0----|
B|-2-----------2-----------2-----------2------------|
G|-----2-----------2-----------2-----------2--------|
D|---2-------2---2-------2---2-------2---2-------2--|
A|-0-----0-----0-----0-----0-----0-----0-----0------|
E|--------------------------------------------------|

A                       D
We can love, We can love
A                    Bm D G
We can love, We can looove..
                                           D
And the birds will sing our song in Halcyon             (I got lazy)


:D


************************************

| /   slide up
| \   slide down

************************************

            
            
Suggest correction
Creating personal tab
Creating personal tab
You can edit any tab online and save it as your Personal.

You can edit, replace or remove any tab part or add personal notes – all changes will be seen only by you.

Personal tabs can be accessed anytime from any device, even offline.
Learn more »
comments
print report bad tab
guest
You may want to rate the tab now too:
select rating
Wanna post a correction for this tab? Suggest correction