Oops, an error
Loading. Please wait.

Paint tab

version 3
version 3

Whole song

  • I wanted to make a version of "Paint" that was in ... Show more
  • I tried to make this version closer to the origina... Show more

Interactive

865 views 69 this week
no commentswrite comment
1 2 3 4 5
x 3
add to favorites
×
Save as Personal and add changes to this tab that will be seen only by you. Learn more ›
×
You can save this tab as Personal to edit and correct it or add notes. All changes will be seen only by you. Learn more »
launch autoscroll
font size
0
reset
how to read this tab
guitar tuner
edit
Autoscroll
slow
fast
+/-
esc
set tempo
stop
Author
Difficulty
About this tab version
I tried to make this version closer to the original song, not higher pitched like most of the versions I've seen online. Also the standard tuning and no capo make it simpler. Was this info helpful? Yes No
Standard Tuning (EADGBE) - No Capo
There was one other decent tab of this song but it seemed off from the actual song. This is one of my first 
tabs so apologies if the notation is a bit off. This is a really warm, harmonic song, 
and I hope you enjoy the tab!


[Intro]
e|---------------------------------------------------------|
B|---------------------------------------------------------|
G|---------------------------------------------------------|
D|---2---2---2---2---2---2---2---2---2---2---2---2---2---2-|  (x2)
A|-4---4---2---2-----------0---0---0---0---0---0---0---0---|
E|-----------------0---0-----------------------------------|


[Verse 1]  
e|-----------------------------------------------------------------|
B|-----------------------------------------------------------------|
G|-----------------------------------------------------------------|
D|---2---2---2---2---2---2---2---2---2---2---2---2---2---2---2---2-|   (x3)
A|-4---4---2---2-----------0---0---0---0---0---0---2---2-----------|
E|-----------------0---0-----------------------------------0---0---|


[Verse 2]
e|-------------------------------------------------------------------------|
B|-------------------------------------------------------------------------|
G|-----------------------------------------------------------------1 (hold)|
D|---2---2---2---2---2---2---2---2---2---2---2---2---2---2---2---2---------|
A|-4---4---2---2-----------0---0---0---0---0---0---2---2-------------------|
E|-----------------0---0-----------------------------------0---0-----------|


[Verse 1]  
e|-----------------------------------------------------------------|
B|-----------------------------------------------------------------|
G|-----------------------------------------------------------------|
D|---2---2---2---2---2---2---2---2---2---2---2---2---2---2---2---2-|   (x2)
A|-4---4---2---2-----------0---0---0---0---0---0---2---2-----------|
E|-----------------0---0-----------------------------------0---0---|


[Verse 2]
e|-------------------------------------------------------------------------|
B|-------------------------------------------------------------------------|
G|-----------------------------------------------------------------1 (hold)|
D|---2---2---2---2---2---2---2---2---2---2---2---2---2---2---2---2---------|
A|-4---4---2---2-----------0---0---0---0---0---0---2---2-------------------|
E|-----------------0---0-----------------------------------0---0-----------|


[Verse 1]  
e|-----------------------------------------------------------------|
B|-----------------------------------------------------------------|
G|-----------------------------------------------------------------|
D|---2---2---2---2---2---2---2---2---2---2---2---2---2---2---2---2-|   
A|-4---4---2---2-----------0---0---0---0---0---0---2---2-----------|
E|-----------------0---0-----------------------------------0---0---|


[Bridge]
e|-------------------------------------------------|
B|-------------------------------------------------|
G|-------------------------------------------------|
D|---2---2---2---2---2---2---2---2---2---2---2---2-|
A|-0---0---2---2-----------------------------------|
E|-----------------0---0---0---0---0---0---0---0---|


[Verse 1]  
e|-----------------------------------------------------------------|
B|-----------------------------------------------------------------|
G|-----------------------------------------------------------------|
D|---2---2---2---2---2---2---2---2---2---2---2---2---2---2---2---2-|   (x2)
A|-4---4---2---2-----------0---0---0---0---0---0---2---2-----------|
E|-----------------0---0-----------------------------------0---0---|


[Outro]
e|-------------------------------------------------------------------------|
B|-------------------------------------------------------------------------|
G|-----------------------------------------------------------------1 (hold)|
D|---2---2---2---2---2---2---2---2---2---2---2---2---2---2---2---2---------|
A|-4---4---2---2-----------0---0---0---0---0---0---2---2-------------------|
E|-----------------0---0-----------------------------------0---0-----------|

            
            
Suggest correction
Creating personal tab
Creating personal tab
You can edit any tab online and save it as your Personal.

You can edit, replace or remove any tab part or add personal notes – all changes will be seen only by you.

Personal tabs can be accessed anytime from any device, even offline.
Learn more »
Give kudos to tab author, rate the tab!
1 2 3 4 5
comments
print report bad tab
guest
You may want to rate the tab now too:
select rating
Wanna post a correction for this tab? Suggest correction