Oops, an error
Loading. Please wait.

This Is An Emergency tab

version 1
version 1

Whole song

Interactive

17,336 views 9 this week
8 commentsread comments
1 2 3 4 5
x 12
add to favorites
×
Save as Personal and add changes to this tab that will be seen only by you. Learn more ›
×
You can save this tab as Personal to edit and correct it or add notes. All changes will be seen only by you. Learn more »
launch autoscroll
font size
0
reset
how to read this tab
guitar tuner
backing track
0:00
0:00
edit
Autoscroll
slow
fast
+/-
esc
set tempo
stop
Author
The New Single From The Pigeon Detectives, "This Is An Emergency"

I'm Loving The New Sound Can't Wait For Album


Intro / Verse 1

e|---------------------------------------------|      
B|---------------------------------------------|     
G|---------------------------------------------|       
D|--7----------10---------12----------10-------|x 3
A|--x---x16----x--x16-----x----x28----x---x4---|      
E|--5----------8----------10----------8--------|

Pre Chorus

F, Am, C, Dm


e|-13-13----12-12----12-12----13-13--|      
B|-13-13-x2-13-13-x2-13-13-x2-15-15--|     
G|-14-14----14-14----12-12----14-14--| x2      
D|-----------------------------------|  
A|-----------------------------------|      
E|-----------------------------------|

Chorus

e|------------------|      
B|------------------|     
G|--7-7-7/9-9-9/12--|       
D|--x-x-x/x-x-x/x---|x 8  
A|--5-5-5/7-7-7/10--|      
E|------------------|

Verse 2

e|-----------------------------------------------|      
B|-----------------------------------------------|     
G|-----------------------------------------------|       
D|--7----------10----------------7-7-5-5-7-7-----|x 2  
A|--x--x16-----x-----x16-----5-5--------------x4-|      
E|--5----------8---------------------------------|

Pre-Chorus

Chorus

Bridge

e|--------------------|      
B|--------------------|     
G|--------------------|       
D|--------------------|  
A|--12*--15*--17*--17*|      
E|--------------------|

Pre-Chorus

Chorus x2

Outro

e|--5--5------------------------|         
B|--5--5------------------------|         
G|--6--6------------------------|        
D|--7--7------------------------|x 3      
A|--7--7------------------------|        
E|--5--5---8-8-8-8-10-10-10-10--|        

End on A (Let It Ring)

Peace x

            
            
Suggest correction
Creating personal tab
Creating personal tab
You can edit any tab online and save it as your Personal.

You can edit, replace or remove any tab part or add personal notes – all changes will be seen only by you.

Personal tabs can be accessed anytime from any device, even offline.
Learn more »
comments
print report bad tab
8 comments total. Showing first comments.
0 reply
Dayleh 197 Apr 11, 2008 01:00 PM

sounds right, nice job

0 reply
barrboy89 10 May 05, 2008 02:57 AM

Yeah, sounds quality....cheers

0 reply
Average Rocksta 10 Dec 18, 2008 10:35 AM

very nice ^^ just a question: during the chorus what does the second guitar do while the first one does:
G --7-7-7/7-7-7/12------------------------
D --x-x-x/x-x-x/x------------------------
A --5-5-5/9-9-9/10------------------------

guest
You may want to rate the tab now too:
select rating
Wanna post a correction for this tab? Suggest correction