Oops, an error
Loading. Please wait.

Hollywood Fix tab

version 1
version 1

Whole song

1,537 views 1 this week
no commentswrite comment
1 2 3 4 5
1 last vote to show rating
add to favorites
×
Save as Personal and add changes to this tab that will be seen only by you. Learn more ›
×
You can save this tab as Personal to edit and correct it or add notes. All changes will be seen only by you. Learn more »
launch autoscroll
font size
0
reset
how to read this tab
guitar tuner
edit
Autoscroll
slow
fast
+/-
esc
set tempo
stop
Author
-------------------------------------------------------------------------------
                             Hollywood Fix - The Pink Spiders
-------------------------------------------------------------------------------
Tabbed by: Steven Gladman
Email: stevie.gladman@ntlworld.com

Tuning: EADGBE

VERSE 

E G# A    X 2

C# A E B  X 2
G# C#
A  B

(play verse twice)



e|-----------------------------|
B|-----------------------------|
G|-----------------------------|
D|-----------------------------|
A|-----------------------------|
E|--7-7-7-5-5-5-4-4-4-2-2-2----|

CHORUS

E C# A B X 2

VERSE (first part not played)

C# A E B  X 2
G# C#
A  B

C# A E B  X 2
G# C#
A  B


CHORUS

E C# A B X 2


SOLO
played over chords from chorus

E C# A B


e|---------------------------------------------7----------------------^------7-7-7---------------------------|
B|-9-7-9-9--7-9-9--9-9-7---9-7-9-9--7-9-9--9-9------9-7-9-9--7-9-9--9-9-9-7--------10-10-10-9-9-9-7-7-7------|
G|-----------------------9-----------------------9------------------------------------------------------9----|
D|-----------------------------------------------------------------------------------------------------------|
A|-----------------------------------------------------------------------------------------------------------|
E|-----------------------------------------------------------------------------------------------------------|

Play solo twice

END



| /  slide up
| \  slide down
| h  hammer-on
| p  pull-off
| ~  vibrato
| +  harmonic
| x  Mute note
===============================================================================

            
            
Suggest correction
Creating personal tab
Creating personal tab
You can edit any tab online and save it as your Personal.

You can edit, replace or remove any tab part or add personal notes – all changes will be seen only by you.

Personal tabs can be accessed anytime from any device, even offline.
Learn more »
Give kudos to tab author, rate the tab!
1 2 3 4 5
comments
print report bad tab
guest
You may want to rate the tab now too:
select rating
Wanna post a correction for this tab? Suggest correction