Oops, an error
Loading. Please wait.

Modern Swinger tab

version 1
version 1

Whole song

Interactive

2,388 views 6 this week
3 commentsread comments
1 2 3 4 5
x 4
add to favorites
×
Save as Personal and add changes to this tab that will be seen only by you. Learn more ›
×
You can save this tab as Personal to edit and correct it or add notes. All changes will be seen only by you. Learn more »
launch autoscroll
font size
0
reset
how to read this tab
guitar tuner
edit
Autoscroll
slow
fast
+/-
esc
set tempo
stop
Author
Difficulty
Modern Swinger

Artist: The Pink Spiders

Riff 1
E----------------------------------------|
B-9--9--------------9--7-7-7-9-7---------|
G-------9--9--6--6---------------9-6-9---|
D----------------------------------------|
A----------------------------------------|
E----------------------------------------|

E----------------------------------------|
B-7--7--------------7--9-9-9-10-9-7---7--|
G-------8--8------------------------9----|
D-------------9--9-----------------------|
A----------------------------------------|
E----------------------------------------|


Main Riff
E-----x-x-x-x-x-------x-x-----x-x-----x-x-|
B-----x-x-x-x-x-------x-x-----x-x-----x-x-|
G-6-6-x-x-x-x-x-6/9-9-x-x-----x-x-----x-x-|
D-6-6-x-x-x-x-x-6/9-9-x-x-9-9-x-x-6-6-x-x-|
A-4-4-x-x-x-x-x-4/7-7-x-x-9-9-x-x-6-6-x-x-|
E-----x-x-x-x-x-------x-x-7-7-x-x-4-4-x-x-|

E-x-x-x-x-----x-x-----x-x----------------|
B-x-x-x-x-----x-x-----x-x----------------|
G-x-x-x-x-4-4-x-x-5-5-x-x----------------|
D-x-x-x-x-4-4-x-x-5-5-x-x----------------|
A-x-x-x-x-2-2-x-x-3-3-x-x----------------|
E-x-x-x-x-----x-x-----x-x----------------|


Pre-Chorus
E-----------------------------------------|
B-----------------------------------------|
G-----------------9-9-9-9-9-9-9-9-9-------|
D-7-7-7-7-7-7-7-7-9-9-9-9-9-9-9-9-9-7-7-7-|
A-7-7-7-7-7-7-7-7-7-7-7-7-7-7-7-7-7-7-7-7-|
E-5-5-5-5-5-5-5-5-------------------5-5-5-|

E-----------------------------------------|
B-----------------------------------------|
G-----------5-5-5-5-----------------------|
D-7-7-7-7-7-5-5-5-5-9-9-9-9-7-7-7-7-7-7-7-|
A-7-7-7-7-7-7-7-7-7-9-9-9-9-7-7-7-7-7-7-7-|
E-5-5-5-5-5---------7-7-7-7-5-5-5-5-5-5-5-|

E---5------------------------------------|
B---5------------------------------------|
G---5------------------------------------|
D-7-7------------------------------------|
A-7-7------------------------------------|
E-5-5------------------------------------|

Chorus
E----------------------------------------|
B----------------------------------------|
G-9-9-9-9---------6-6-6-6----------------|
D-9-9-9-9-6-6-6-6-6-6-6-6-7-7-7-7--------|
A-7-7-7-7-6-6-6-6-4-4-4-4-7-7-7-7--------|
E---------4-4-4-4---------5-5-5-5--------|

Break
E-----------------------------------------|
B-----5-----5---5-------7---7-------7-----|
G-6-6---6-6---6---5-5-5---5---5-4-4---4-4-|
D-----------------------------------------|
A-----------------------------------------|
E-----------------------------------------|

E-------------4---4-----------------------|
B-7---7-------------------5-----5---5-----|
G---4---3-3-3---3---3-6-6---6-6---6---5-5-|
D-----------------------------------------|
A-----------------------------------------|
E-----------------------------------------|

E---------------------------------4---4---|
B---7---7-------7-----7---7---------------|
G-5---5---5-4-4---4-4---4---3-3-3---3---3-|
D-----------------------------------------|
A-----------------------------------------|
E-----------------------------------------|

E-----x-------x-------x-------x-------x---|
B-----x-------x-------x-------x-------x---|
G-----x-------x-------x-------x-------x---|
D-7-7-x-7-7-7-x-7-7-7-x-7-7-7-x-7-9-9-x-9-|
A-7-7-x-7-7-7-x-7-7-7-x-7-7-7-x-7-9-9-x-9-|
E-5-5-x-5-5-5-x-5-5-5-x-5-5-5-x-5-7-7-x-7-|

E-----x----------------------------------|
B-----x----------------------------------|
G-----x----------------------------------|
D-9-9-x-9-9------------------------------|
A-9-9-x-9-9------------------------------|
E-7-7-x-7-7------------------------------|


Outro
E----------------------------------------|
B-9--9--------------9---7--7--9--7-------|
G-------9--9--7--7------------------9--6-|
D----------------------------------------|
A----------------------------------------|
E----------------------------------------|

E-----------------------------------------|
B----7--7--------------7---9--9--10--9--7-|
G-9--------8--8---------------------------|
D----------------9--9---------------------|
A-----------------------------------------|
E-----------------------------------------|

E----------------------------------------|
B----7--9--9--------------9---7--7--9--7-|
G-9-----------9--9--7--7-----------------|
D----------------------------------------|
A----------------------------------------|
E----------------------------------------|

E-----------------------------------------|
B----------7--7--------------7---9--9--10-|
G-9--6--9--------8--8---------------------|
D----------------------9--9---------------|
A-----------------------------------------|
E-----------------------------------------|

E----------------------------------------|
B-9--7-----7-----------------------------|
G-------9-------9------------------------|
D---------------9------------------------|
A---------------7------------------------|
E----------------------------------------|

Feedback Effect:
Put your hand lightly on all of the strings. Let go of them and let it ring.

Song Layout:
Riff 1 (just bass) x2
Riff 1             x2
Main Riff          x2
Pre-Chorus         x1
Chorus             x4
Riff 1             x1
Main Riff          x2
Pre-Chorus         x1
Chorus             x4
(dive-bomb)
Break              x1
Chorus (no guitar) x4
Optional:(feedback effect)
Chorus             x8
Outro              x1

            
            
Suggest correction
Creating personal tab
Creating personal tab
You can edit any tab online and save it as your Personal.

You can edit, replace or remove any tab part or add personal notes – all changes will be seen only by you.

Personal tabs can be accessed anytime from any device, even offline.
Learn more »
comments
print report bad tab
3 comments total.
0 reply
UGROQFAN 132 Nov 04, 2006 07:22 AM

it's sort of off it sounds good but hte intro is so wrong the rest I don't know but it's still good

0 reply
EPIDEMIC, 10 May 09, 2007 03:50 PM

Good tab.
:D

0 reply
shrededconfetti 10 Aug 15, 2008 05:17 PM

ya, the rest is awesome, but i suggest using the intro from "modern swingers" which is the wrong name, but right intro, so oh well...

guest
You may want to rate the tab now too:
select rating
Wanna post a correction for this tab? Suggest correction