Oops, an error
Loading. Please wait.

Rat Poison tab

76 views 1 this week
4 commentsread comments
1 2 3 4 5
3 more votes to show rating
add to favorites
×
Save as Personal and add changes to this tab that will be seen only by you. Learn more ›
×
You can save this tab as Personal to edit and correct it or add notes. All changes will be seen only by you. Learn more »
launch autoscroll
font size
0
reset
how to read this tab
guitar tuner
edit
Autoscroll
slow
fast
+/-
esc
set tempo
stop
"Rat Poison" by The Plot In You

Guitar Tab by Daniel Varney

Tuning: Drop Ab
Ab, Eb, Ab, Db, F, Bb


[Intro -- after strange background noises] X2
 
Bb|------------------------------------------------------------0-------5H--------------------------------|
F |------------------------------------------------------------0-------5H--------------------------------|
Db|------------------------------------------------------------0-------------Weird effects/slides...-----|
Ab|-11--1--11111--1--1111-11-1-1-1-1-11-111-1-1111-1-1111--1-1----1-1------------------------------------|
Eb|-00--0--00000--0--0000-00-0-0-0-0-00-000-0-0000-0-0000--0-0----0-0------------------------------------|
Ab|-11--1--11111--1--1111-11-1-1-1-1-11-111-1-1111-1-1111--1-1----1-1------------------------------------|
*PM THE REPEATED CHORD THROUGHOUT INTRO

 
[Verse 1]
 
Bb|----------------------------------------------------|----------------------------------|
F |----------------------------------------------------|----------------------------------|
Db|-------------------------8-----------8---------(X2)-|----------------------------------|
Ab|---6---8-------6---8---------8----------------------|----------------------------------|
Eb|-----5-----------5---------5---4-------5-8-4--------|----------------------------------|
Ab|-0-------000-0-------000---------000---------00-----|00000000000000007777777733333333--|
  PM-     PM-----     PM---       PM---       PM------------------------------------------|


[BREAKDOWN 1]
Bb|----------------------------------------------------------------------------------------------|
F |----------------------------------------------------------------------------------------------|
Db|----------------------------------------------------------------------------------------------|
Ab|----------------------------------------------------------------------------------------------|
Eb|-000000--0--00---00-00---000000--0--0--000-000--000000--0--00---00-00---000000--0--0--000-000-|
Ab|-111111--1--11---11-11---111111--1--1--111-111--000000--0--00---00-00---000000--0--0--000-000-|
*PM ENTIRE BREAKDOWN


[Verse 2]

Bb|---------------------------------------------------------------------------------------------------------|
F |---------------------------------------------------------------------------------------3-3-3-6-6-6-3-3-3-|
Db|-------------7---------------7-7-7---------------------------7-7-7---------------2-2-2-------------------|
Ab|-------6-6-6-----------6-6-6---------------------------6-6-6---------------------------------------------|
Eb|-5-5-5-----------5-5-5-------------8-8-8-4-4-7-7-5-5-5---------------------------------------------------|
Ab|-------------------------------------------------------------------8-8-8-7-7-0-0-------------------------|

Bb|-------------------------------------------------------|
F |-----3-3-------3-3-3-6-6-6-----------------------------|
Db|-2-2-----2-2-2-----------------------------------------|
Ab|---------------------------------------0-0-0-0-0-0-0-0-|
Eb|---------------------------5-5-4-4-0-0-6-6-6-6-6-6-6-6-|
Ab|-------------------------------------------------------|


[Verse 3]

Bb|--------------------------------------------------------------------------------------------------------|
F |--------------------------------------------------------------------------------------------------------|
Db|--------------------------------------------------------------------------------------------------------|
Ab|--------0-0-0-0-0---------0-0-0-0-0--------0-0-0------0-0-0-0-0-0--------0-0-0-------0-0-0-0-0----------|
Eb|-000000-6-6-6-6-6-00-00-0-6-6-6-6-6-000000-6-6-6-00-0-6-6-6-6-6-6-000000-6-6-6-00-00-6-6-6-6-6-00000000-|
Ab|-000000-----------00-00-0-----------000000-------00-0-------------000000-------00-00-----------00000000-|
*PM OPEN CHORDS THROUGHOUT VERSE

Bb|-----------------------------------------------------------------------------|
F |-----------------------------------------------------------------------------|
Db|-----------------------------------------------------------------------------|
Ab|-----------------------------------------------------------------------------|
Eb|-0--00----0--00-0-0000--0000----000--00000000-----0--0--000--0--0-----000000-|
Ab|-0--00----0--00-0-0000--0000----000--00000000-----0--0--000--0--0-----000000-|


[Bridge - beginning with little to no distortion] X2
Bb|------------------|-------------------------------------------------------------------|
F |------------------|-------------------------------------------------------------------|
Db|------------------|-------------------------------------------------------------------|
Ab|-------6b---------|-----6b-----------6b-----------------6b-----------6b-----------0~--|
Eb|----5-----5--8--4-|---5----5-8-4---5----5/------------5----5-8-4---5----5---------0~--|
Ab|-0----------------|-0------------0---------11111111-0------------0---------0000---0~--|
                                            PM--------                      PM-----------|

*Begins at same time as sustained open chord above
Bb|---------------------------------------------------------------------------------|
F |---------------------------------------------------------------------------------|
Db|-7~-------10----12-----7---------14-14-14-14-14-14-14-14-15-15-15-15-15-15-15-15-|
Ab|-x--------x-----x------x---------x--x--x--x--x--x--x--x--x--x--x--x--x--x--x--x--|
Eb|-5~-------8-----10-----5~--------12-12-12-12-12-12-12-12-13-13-13-13-13-13-13-13-|
Ab|---------------------------------------------------------------------------------|


[BREAKDOWN 2 AND FINAL BREAKDOWN]

EVERYTHING WILL CHANGE.
Bb|------------|------------------------------------------------------------------------------------------|
F |------------|------------------------------------------------------------------------------------------|
Db|-BEGINNING,-|------------------------------------------------------------------------------------------|
Ab|-BACKGROUND-|------------------------------------------------------------------------------------------|
Eb|-00-00-00-00|-00-00-00--000000-00-00-00-00-00-00--000000-00-00-00-----00-00--000000-00-00-00-00-00-00--|
Ab|-00-00-00-00|-00-00-00--000000-00-00-00-00-00-00--000000-00-00-00-----00-00--000000-00-00-00-00-00-00--|
*PM UNTIL SONG ENDS

Bb|--------------------------------------------------------------------------------------------------------|
F |--------------------------------------------------------------------------------------------------------|
Db|----------------SOME ODD SLIDES AND SCRAPES...----------------------------------------------------------|
Ab|----------------------------------------------------------------------------------------------------1---|
Eb|000000-00-00-00--------------------------------0-0---0-0---0-0--0--0000--00---0--0-00--00---0---0-0-0---|
Ab|000000-00-00-00--------------------------------1-1---1-1---1-1--1--1111--11---1--1-11--11---1---1-1-1---|

Bb|---------------------------------------------------------------------------------------------------------|
F |---------------------------------------------------------------------------------------------------------|
Db|---------------------------------------------------------------------------------------------------------|
Ab|-------------------------------------------------------------------------------------0--0----------------|
Eb|0-0---0-0---0-0--0--0000--00---0--0-00--00-------------------------------------------0--0----------------|
Ab|1-1---1-1---1-1--1--1111--11---1--1-11--11----0b~---000-000---000--0---0-0-0-0--000--0--0--000-000---000-|

Bb|------------------------------------|
F |------------------------------------|
Db|------------------------------------|
Ab|------------------------------------|
Eb|-------------------------------00---|
Ab|-0---0-0-0-0--0000000000000000-00---|



************************************

| PM  Palm mute
| b   Bend
| ~   Vibrato
| /   Slide up
| x   Dead note


************************************

            
            
Suggest correction
Creating personal tab
Creating personal tab
You can edit any tab online and save it as your Personal.

You can edit, replace or remove any tab part or add personal notes – all changes will be seen only by you.

Personal tabs can be accessed anytime from any device, even offline.
Learn more »
Give kudos to tab author, rate the tab!
1 2 3 4 5
comments
print report bad tab
4 comments total. Showing first comments.
0 reply
sassafrasroots2 31 Jul 18, 2017 09:42 PM

Hey guys, just wanna apologize for the standard tuning that the page indicates this song is in. Drop Ab/G# was not an option and it wouldn't let me enter my owm; leaving the box blank apparently means it's automatically assumed to be in standard. This is my first ever tab, so please keep that in mind if you have criticism or suggestions.

All comments are welcome, but I'm just saying, if there are glaringly odd errors that most tabbers would not make, that is probably why. Thanks! Enjoy :)

0 reply
mendace [m] 39,100 Jul 18, 2017 11:23 PM

I would use drop Ab, just for the sake of Ab being a little easier to deal with than G#. Drop Ab would be Ab Eb Ab Db F Bb. If you really insist on using drop G#, make the F an E# and you're good to go

0 reply
sassafrasroots2 31 Jul 20, 2017 07:54 PM

Yeah, you're probably right. I'll adjust it on the tab. Thanks! :)

guest
You may want to rate the tab now too:
select rating
Wanna post a correction for this tab? Suggest correction