Oops, an error
Loading. Please wait.
We have an official Roxanne tab made by UG professional guitarists. Check out the tab »
×
85,073 views 84 this week
1 commentread comment
1 2 3 4 5
x 12
add to favorites
×
Save as Personal and add changes to this tab that will be seen only by you. Learn more ›
×
You can save this tab as Personal to edit and correct it or add notes. All changes will be seen only by you. Learn more »
launch autoscroll
font size
0
reset
guitar tuner
backing track
0:00
0:00
edit
Autoscroll
slow
fast
+/-
esc
set tempo
stop
Author
Difficulty
Unregistered
[Intro and Verses]

    0:04
G|----------------------------------------------------------------------|
D|----------------------------------------------------------------------|
A|------10--10----8--8----6--6----5--5----3--3--------------------------|
E|------------------------------------------------1--1----1--3~~~~~~~~--|

Then after the part that goes ‘You don’t care if it’s wrong or if it’s right’ and the 
that goes
'it's a crime that way'

You play this

G|----------------------------------------------------------------------|
D|----------------------------------------------------------------------|
A|----3--3--------------------------3--3--------------------------------|
E|------------1--1---3--3---3--3----------1--1---1--3-------------------|


[Chorus]

The for the chorus play this:
For the second time, play all, 3 times.

G|----------------------------------------------------------------------|
D|----------------------------1--3-3-3-3-3-3-3-3-3-3-3------------------|
A|--3--1-1-1-1-1-1-1-1-1-1-1----------------------------3---------------|
E|---------------------------------------------------------1--3-3-3-3---|

G|----------------------------------------------------------------------|
D|---------------------------------------------1--3-3-3-3-3-3-3-3-3-3-3-|
A|------------------3--1-1-1-1-1-1-1-1-1-1-1----------------------------|
E|--3-3-3-3-3-3-3-------------------------------------------------------|

G|----------------------------------------------------------------------|
D|----------------------------------------------------------------------|
A|--3-------------------------------------------------------------------|
E|-----1—3-(3-3-3-3-3-3-3-3-3-second time add this)---------------------|


Then before the verse again, play this

G|--------------------------------------------------------------------|
D|--------------------------------------------------------------------|
A|--------------------------------------------------------------------|
E|---1--3------3--1------1--3------3--1-------------------------------|

Then repeat everything




            
            
Suggest correction
Creating personal tab
Creating personal tab
You can edit any tab online and save it as your Personal.

You can edit, replace or remove any tab part or add personal notes – all changes will be seen only by you.

Personal tabs can be accessed anytime from any device, even offline.
Learn more »
comments
print report bad tab
1 comment total.
-2 reply
Secarli 44 Dec 22, 2012 12:25 PM

close but also not correct. you should start on D5 then to D3 then to A6 etc...

guest
Wanna post a correction for this tab? Suggest correction