Oops, an error
Loading. Please wait.

So Lonely bass

version 3
version 3

Whole song

Interactive

31,179 views 30 this week
1 commentread comment
1 2 3 4 5
x 20
add to favorites
×
Save as Personal and add changes to this tab that will be seen only by you. Learn more ›
×
You can save this tab as Personal to edit and correct it or add notes. All changes will be seen only by you. Learn more »
launch autoscroll
font size
0
reset
guitar tuner
edit
Autoscroll
slow
fast
+/-
esc
set tempo
stop
Difficulty
intermediate
Title: So Lonely
Artist: The Police

I actually got this tab from Ultimate-Guitar.com.
This is my all-time favorite Police song.
It's not THAT hard to play, just listen for the timing.
I've got it about 97% right, so here it is.

This is my first tab, so any suggestions, comments, corrections, etc,
Drop me a line at bshauc01@morehead-st.edu
Thanks and I hope you have as much fun playing this one as i do! =)

Verse x7

G]--------------------------------------|
D]--------------------------------------|
A]---2-3--------------------------------|
E]---------2-3--4-5--0-1----------------|

on the 8th measure... (pre-chorus)
G]--------------------------------------|
D]--------------------------------------|
A]---2-3--------------------------------|
E]---------2-3--4-5--0-1111111----------|


And the chorus x2 (:51)

G]-------------------------------------------------------------------|
D]-------------------------------------------------------------------|
A]-----3-3-3-3-3-3-3-------------------------------------------------|
E]-------------------3-3-3-3-3-3-3-4-5-5-5-5-5-5-5-3/1-11------------|

Fill in x4
G]--------------------------------------|
D]--------------------------------------|
A]---4-5--------------------------------|
E]---------4-5--6-7--2-3----------------|


Fill 2

G]----------------------------------------------------------------------------------------------------------|
D]-----------------7777777p6h7/999999975555555h7------------------------------------------------------------|
A]----5555555------------------------------------------------55555------------------------------------------|
E]---------------------------------------------------------------------------7p5h7p5555554h5/77777p5333333--|

ok, there's a part here in the middle that Andy solos and Sting just goes nuts...
listen REALLY CLOSELY for the timing, but you can basically freestyle, it's a
modified Fill 2 ;)

outro
G]-------------------------------------------|
D]-------------------------------------------|
A]--5555555----------------------------------|
E]---------------555555p4h5777777p5/3333333--|

i added a VERY BASIC song structure, just so you know what to listen for and when.

verse (0:00 - 0:51)
chorus (:51 - 1:15)
verse (1:15 - 2:04)
chorus (2:04 - 2:27)
fill 1 (2:27 - 2:52)
fill 2 (2:52 - 3:16)
Outro (3:16 - 4:50)

            
            
Suggest correction
Creating personal tab
Creating personal tab
You can edit any tab online and save it as your Personal.

You can edit, replace or remove any tab part or add personal notes – all changes will be seen only by you.

Personal tabs can be accessed anytime from any device, even offline.
Learn more »
comments
print report bad tab
1 comment total.
0 reply
BenJohnsonII 10 Nov 30, 2013 07:50 PM

i'd say about 99.9% right.. Thanks. The timing is a killer..

guest
Wanna post a correction for this tab? Suggest correction