Oops, an error
Loading. Please wait.
We have an official Walking On The Moon tab made by UG professional guitarists. Check out the tab »
×
65,595 views 123 this week
2 commentsread comments
1 2 3 4 5
x 51
add to favorites
×
Save as Personal and add changes to this tab that will be seen only by you. Learn more ›
×
You can save this tab as Personal to edit and correct it or add notes. All changes will be seen only by you. Learn more »
launch autoscroll
font size
0
reset
guitar tuner
backing track
0:00
0:00
edit
Autoscroll
slow
fast
+/-
esc
set tempo
stop
Author
This is a simple bass tab, created listening to the song. Hoping there are no mistakes XD

The Police: Walking On The Moon
Bass TAB
by EleGoS


[VERSE]
G|---------------||
D|--------3-2----||
A|--3-3-5-----3--||
E|---------------||
    
[CHORUS START]
G|-----------------||
D|----------5-5-5--||
A|--3-3-5-5--------||
E|-----------------||
    
[CHORUS]
G|-----------------------------------||
D|-----------------------------------||
A|--1-1-1-3-----------3-3-3-------0--||
E|----------1-1-1-1-3-------3-3-3----||
     
[CHORUS FINAL]
G|-----------------------------------||
D|-----------------------------------||
A|--1-1-1-3-----------3-3-3---3-3-5--||
E|----------1-1-1-1-3-------3--------||

            
            
Suggest correction
Creating personal tab
Creating personal tab
You can edit any tab online and save it as your Personal.

You can edit, replace or remove any tab part or add personal notes – all changes will be seen only by you.

Personal tabs can be accessed anytime from any device, even offline.
Learn more »
comments
print report bad tab
2 comments total.
0 reply
Bassprogman 10 Jan 23, 2013 04:38 PM

Pretty awesome

-1 reply
decp 32 Apr 12, 2014 06:23 AM

Artist: The Police
Song: Walking on the Moon
Tuning: Standard
The other two tabs do a pretty good job, but the chorus is a bit off and they omit the rests.

VERSE:
There is an 1/8th rest at the end of the measure immediately before
the C repeating the riff.

G|-------------------- ||
D|-----------3-2------*||
A|--3-3-5--------3---r*||
E|-------------------- ||

BRIDGE:
Play the first three notes just like the verse.

G|-----------------||
D|----------5-5-5--||
A|--3-3-5-5--------||
E|-----------------||

CHORUS:
Sting only plays the roots in the chorus except for the transitional open A.
Listen to the recording and you will clearly here the rests and the rhythm,
quite fun to play.

G|-----------------------------------------||
D|-----------------------------------------|| x2
A|--1-1-1r-1------------3-3-3r-3--------0--||
E|-----------1-1-1-1r-1----------3-3-3-3---||

CHORUS FINISH:
Third time through play this and after the two quick notes at the end go
back into the verse.

G|------------------------------------||
D|------------------------------------||
A|--1-1-1r-1------------3-3-3r-3-3----||
E|-----------1-1-1-1r-1---------------||

guest
You may want to rate the tab now too:
select rating
Wanna post a correction for this tab? Suggest correction