Oops, an error
Loading. Please wait.
We have an official Walking On The Moon tab made by UG professional guitarists. Check out the tab »
×
46,075 views 123 this week
4 commentsread comments
1 2 3 4 5
x 16
add to favorites
×
Save as Personal and add changes to this tab that will be seen only by you. Learn more ›
×
You can save this tab as Personal to edit and correct it or add notes. All changes will be seen only by you. Learn more »
launch autoscroll
font size
0
reset
guitar tuner
backing track
0:00
0:00
edit
Autoscroll
slow
fast
+/-
esc
set tempo
stop
Author
Unregistered
WALKING ON THE MOON     (as recorded by The Police)

Original music by Sting

This is a simple song to play. I use it when I jam with my Buds.
There's a lot of space.

[Verse]
|---------------------------------------------------------------------------|
|------------------s3---2----------------------s3---2-----------------------|
|---3---3---5---------------3-------3---3---5-----------3-------------------|
|---------------------------------------------------------------------------|
        Giant steps are what you take...

Riff into chorus
|-------------------|
|-------5---5---5---|
|---5---------------|
|-------------------|

[Chorus]
|---------------------------------------------------------------------------|
|---------------3---3---3---3---------------5---5---5---5-------------------|
|---1---1---1-------------------3---3---3-----------------------------------|
|---------------------------------------------------------------------------|
        Some may say...

************************************

s = slide up to next note

************************************

            
            
Suggest correction
Creating personal tab
Creating personal tab
You can edit any tab online and save it as your Personal.

You can edit, replace or remove any tab part or add personal notes – all changes will be seen only by you.

Personal tabs can be accessed anytime from any device, even offline.
Learn more »
comments
print report bad tab
4 comments total. Showing first comments.
+2 reply
welsh_sammy 10 Jul 04, 2005 08:00 PM

Perfect! awesome tab for an awesome song!

+2 reply
Joetime 81 Jun 16, 2007 08:11 AM

I think the F should be played first fret on the E, still a great tab. After all octaves could be used to spice it up.

-1 reply
xXJADAXx 51 Oct 15, 2007 03:34 PM

i think the chorus sound more like this but besides that good tab!!


G|------------------------------------------------------------------|
D|------------------------------------------------------------------|
A|-1-1-11--3--------2-3-3-33-3--------0-----------------------------|
E|-----------1-1-11------------3-3-33---3---------------------------|

guest
Wanna post a correction for this tab? Suggest correction