Oops, an error
Loading. Please wait.

Debate Montage tab

256 views 1 this week
no commentswrite comment
1 2 3 4 5
3 more votes to show rating
add to favorites
×
Save as Personal and add changes to this tab that will be seen only by you. Learn more ›
×
You can save this tab as Personal to edit and correct it or add notes. All changes will be seen only by you. Learn more »
launch autoscroll
font size
0
reset
how to read this tab
guitar tuner
edit
Autoscroll
slow
fast
+/-
esc
set tempo
stop
Author
-------------------------------------------------------------------------------
                             SONG NAME - Band Name
-------------------------------------------------------------------------------
Tabbed by:lovely light
Email:hella602@yahoo.com

Tuning:EADGBE
               This riff is played throughout the entire song.
                  All downstrokes, strummed 8 times each.


      F5              C#5                D5             C#5
e|--------------------------------------------------------------------------------|
B|--------------------------------------------------------------------------------|
G|--------------------------------------------7---------------6-------------------|
D|---------3--------------11------------------7---------------6-------------------|
A|---------3--------------11---------5-----------------4--------------------------|
E|--1--------------9--------------------------------------------------------------|


              I think it sounds best this way, however you
              can play the first C#5 on the 4th fret to make
              it easier.

            
            
Suggest correction
Creating personal tab
Creating personal tab
You can edit any tab online and save it as your Personal.

You can edit, replace or remove any tab part or add personal notes – all changes will be seen only by you.

Personal tabs can be accessed anytime from any device, even offline.
Learn more »
Give kudos to tab author, rate the tab!
1 2 3 4 5
comments
print report bad tab
guest
You may want to rate the tab now too:
select rating
Wanna post a correction for this tab? Suggest correction