Oops, an error
Loading. Please wait.

Such Great Heights bass

version 2
version 2

Whole song

Interactive

11,089 views 6 this week
no commentswrite comment
1 2 3 4 5
x 7
add to favorites
×
Save as Personal and add changes to this tab that will be seen only by you. Learn more ›
×
You can save this tab as Personal to edit and correct it or add notes. All changes will be seen only by you. Learn more »
launch autoscroll
font size
0
reset
guitar tuner
edit
Autoscroll
slow
fast
+/-
esc
set tempo
stop
Author
The Postal Service - Such Great Heights BASS tab
This is the Drop D tab written by Chernobyl moved to standard tuning, and played on more 
one string.

Intro:
G--------------------------------|
D--------------------------------|
A-----------------0-0-0-0-0-0-0-0|
E-1-1-1-1-1-1-1-1----------------|

G--------------------------------|
D--------------------------------|
A--------------------------------|
E-3-3-3-3-3-3-3-3-1-1-1-1-1-1-1-1|

G-----------------|----------------|
D-----------------|----------------|
A-0-0-0-0-0-0-0-0-|----------------| x2
E-----------------|-3-3-3-3-3-3-3-3|


Verse:
G--------------------------------|
D--------------------------------|
A-----------------0-0-0-0-0-0-0-0|
E-1-1-1-1-1-1-1-1----------------|

G--------------------------------|
D--------------------------------|
A-----------------1-1-1-1-3-3-3-3|
E-3-3-3-3-3-3-3-3----------------|

G--------------------------------|
D--------------------------------|
A-----------------0-0-0-0-0-0-0-0|
E-1-1-1-1-1-1-1-1----------------|

G--------------------------------|
D--------------------------------|
A-----------------1-1-1-1-0-0-0-0|
E-3-3-3-3-3-3-3-3----------------|


Chorus:
G-------------------------------------------|
D-------------------------------0-0-0-3-3-3-|
A---------------0-0-3-3-3-3-3-3-------------|
E-1-1-1-1-1-1-1-----------------------------|

G--------------------------------|
D--------------------------------|
A-1-1-1-1-1-1-1-1-0-0-0-0-0-0-0-0|
E--------------------------------|

Bridge:
G-----------------------------------|
D-----------------------------------|
A-------------------0-0-0-0-0-0-0-0-|
E-1-1-1-1-1-1-1-1-1-----------------|

G-------------------|
D-------------------|
A-------------------|
E-3-3-3-3-3-3-3-3-3-|


Intro x1
Verse x2
Chorus x2
Verse x1
Chorus x2
Bridge x4
Chorus x2
Bridge x2
Chorus x3

The amounts of notes may be a little wrong in the chorus. Each note is double shown, so 
song hops along pretty quickly.

            
            
Suggest correction
Creating personal tab
Creating personal tab
You can edit any tab online and save it as your Personal.

You can edit, replace or remove any tab part or add personal notes – all changes will be seen only by you.

Personal tabs can be accessed anytime from any device, even offline.
Learn more »
comments
print report bad tab
guest
You may want to rate the tab now too:
select rating
Wanna post a correction for this tab? Suggest correction