Oops, an error
Loading. Please wait.
14,537 views 15 this week
1 commentread comment
1 2 3 4 5
x 11
add to favorites
×
Save as Personal and add changes to this tab that will be seen only by you. Learn more ›
×
You can save this tab as Personal to edit and correct it or add notes. All changes will be seen only by you. Learn more »
launch autoscroll
font size
0
reset
guitar tuner
edit
Autoscroll
slow
fast
+/-
esc
set tempo
stop
Author
Lump by Presidents of the USA

Standard E-A-D-G Tuning

Timing for each part is at the beginning of each section. There are a couple of tabs for 
song floating around but they are very very incorrect so I thought I would tab it out 
Have fun


:14					   	      X 2
G :------------------------------------------------------|
D :------------------------------------------------------|
A :2-4--2-4--2-4-----------------------------------------|
E :-----------------0h2222222233333332-------------------|

:28			                              X 2
G :------------------------------------------------------|
D :------------------------------------------------------|
A :444444444444444422222222------------------------------|
E :------------------------00000000----------------------|

:40					  	      X 2
G :------------------------------------------------------|
D :------------------------------------------------------|
A :2-4--2-4--2-4-----------------------------------------|
E :-----------------0h2222222233333332-------------------|

:54						      X 3
G :--------------------2344------------------------------|
D :---------------234--------2442------------------------|
A :4444444444444-----------------------------------------|
E :------------------------------------------------------|

1:14						      X 1
G :------------------------------------------------------|
D :------------------------------------------------------|
A :4444444444444444/--2-22-------------------------------|
E :------------------------2-2--0220---------------------|

1:21
G :-----------------44444444-----------------------------|
D :-------------------------22222222---------------------|
A :4444444444444444/-------------------------------------|
E :------------------------------------------------------|

1:28
G :666666666666666644444444------------------------------|
D :------------------------22222222----------------------|
A :------------------------------------------------------|
E :------------------------------------------------------|

1:34						      X 2
G :------------------------------------------------------|
D :------------------------------------------------------|
A :2-4--2-4--2-4-----------------------------------------|
E :-----------------0h2222222233333332-------------------|

1:54						      X 3
G :--------------------2344------------------------------|
D :---------------234-------2442-------------------------|
A :4444444444444-----------------------------------------|
E :------------------------------------------------------|

2:09	                                              X 1
G :------------------------------------------------------|
D :--------------432-------------------------------------|
A :44444444444444----------------------------------------|
E :------------------------------------------------------|


Tabbed by Tim: zichy1@hotmail.com

            
            
Suggest correction
Creating personal tab
Creating personal tab
You can edit any tab online and save it as your Personal.

You can edit, replace or remove any tab part or add personal notes – all changes will be seen only by you.

Personal tabs can be accessed anytime from any device, even offline.
Learn more »
comments
print report bad tab
1 comment total.
0 reply
mickyg 10 Jul 21, 2008 04:11 AM

not too bad i think the 1.21 44444444, 2222222
is a little off but other then that its sounds ok!

guest
You may want to rate the tab now too:
select rating
Wanna post a correction for this tab? Suggest correction