Oops, an error
Loading. Please wait.
8,461 views 1 this week
1 commentread comment
1 2 3 4 5
x 4
add to favorites
×
Save as Personal and add changes to this tab that will be seen only by you. Learn more ›
×
You can save this tab as Personal to edit and correct it or add notes. All changes will be seen only by you. Learn more »
launch autoscroll
font size
0
reset
guitar tuner
edit
Autoscroll
slow
fast
+/-
esc
set tempo
stop
Author
Difficulty
Lump by The Presidents of the USA
Tabbed by Colsy

Standard Tuning
If you have a bass overdrive, use it in the bridge and outro

8 bars rest

1st Chorus					   	      
|------------------------------------------------------|
|------------------------------------------------------| x2
|2-4--2-4--2-4-----------------------------------------|
|--------------------------0h2222222233333333----------|

Verse			                              
|------------------------------------------------------|
|----------------/99999999-\22220202-------------------|
|444444444444444---------------------------------------|
|------------------------------------------------------|

|------------------------------------------------------|
|----------------/99999999-\22222202-------------------|
|444444444444444---------------------------------------|
|------------------------------------------------------|

Chorus					  	      
|------------------------------------------------------|
|------------------------------------------------------| x2
|2-4--2-4--2-4-----------------------------------------|
|-----------------0h2222222233333333-------------------|

Bridge	pt 1	    * Quick Slide up the D					      
|--------------------2344------------------------------|
|--------------234//------22h42------------------------| x3
|4-42444244424-----------------------------------------|
|------------------------------------------------------|

Bridge pt 2						      
|------------------------------------------------------|
|------------------------------------------------------|
|4-42444244424/-7-\\\\2-----2-2------------------------|
|----------------------2-20-----0202-------------------|

3rd Verse         *these are 11's not 1's
|------------------------------------------------------|
|-----------------11111111111111111111119119119--------|
|444444444444444---------------------------------------|
|------------------------------------------------------|


|------------------------------------------------------|
|11(x17)999/5555/2222/4444-----------------------------|
|------------------------------------------------------|
|------------------------------------------------------|

the timing for the run down is a bit weird. this fits closely though

/ ALTERNATE 3RD VERSE if above confuses you		    \
| |----------------/6666666666646464---------------------|   |
| |------------------------------------------------------|   |
| |444444444444444---------------------------------------|   |
| |------------------------------------------------------|   |
| 							     |
| 							     |
| |66666666666666666-------------------------------------|   |
| |-----------------999/5555/2222/4444-------------------|   |
| |------------------------------------------------------|   |
| |------------------------------------------------------|   |
\							    /

Chorus						      
|------------------------------------------------------|
|------------------------------------------------------| x2
|2-4--2-4--2-4-----------------------------------------|
|-----------------0h2222222233333333-------------------|

Outro						      
|--------------------2344------------------------------|
|--------------234//------22h42------------------------| x3
|4-42444244424-----------------------------------------|
|------------------------------------------------------|


	                                              
|---------------654------------------------------------|
|------------------------------------------------------| End
|4-42444244424-----------------------------------------|
|------------------------------------------------------|

            
            
Suggest correction
Creating personal tab
Creating personal tab
You can edit any tab online and save it as your Personal.

You can edit, replace or remove any tab part or add personal notes – all changes will be seen only by you.

Personal tabs can be accessed anytime from any device, even offline.
Learn more »
comments
print report bad tab
1 comment total.
0 reply
ross_paul 10 Feb 27, 2016 05:06 PM

It's definitely hard to hear clearly what the bass is doing, and I think this is a much more accurate tab than v1. Thanks for posting.

guest
You may want to rate the tab now too:
select rating
Wanna post a correction for this tab? Suggest correction