Oops, an error
Loading. Please wait.

Follow Me Down tab

version 1
version 1

Whole song

Interactive

30,085 views 63 this week
2 commentsread comments
1 2 3 4 5
x 12
add to favorites
×
Save as Personal and add changes to this tab that will be seen only by you. Learn more ›
×
You can save this tab as Personal to edit and correct it or add notes. All changes will be seen only by you. Learn more »
launch autoscroll
font size
0
reset
how to read this tab
guitar tuner
edit
Autoscroll
slow
fast
+/-
esc
set tempo
stop
FOLLOW ME DOWN
THE PRETTY RECKLESS

Tabbed By T

Any corrections or complaints to wasssup@hotmail.co.uk, my junk folder
is starting to get lonely
Tuning: Eb (eb Bb Gb Db Ab Eb)
Dont trust the rhythms ive got down, theyre most likely innaccurate.
All tabs of phrases, no timings, etc. etc.


[Intro]

   gtr 1
D#|----------------------------------------------------------------------|
A#|----------------------------------------------------------------------|
F#|----------------------------------------------------------------------|
C#|----------------------------------------------------------------------|
G#|--------------------------------------------------------------7-5-8-7-|
D#|-0-0-0-0-6h7p6p0-3-0-0-0-0-0-1-2h13p12p0-6-0-0-0-0-6h7p6p0-3--5-3-6-5-|

D#|--------------------------------------------------------------------------|
A#|--------------------------------------------------------------------------|
F#|--------------------------------------------------------------------------|
C#|--------------------------------------------------------------------------|
G#|--------------------------------------------------------------2-7-7-2-8-8-|
D#|-0-0-0-0-6h7p6p0-3-0-0-0-0-0-1-2h13p12p0-6-0-0-0-0-6h7p6p0-3--0-5-5-0-6-6-|
pm                                                       .    .

   gtr 2
D#|------------------------------------------------------------------|
A#|------------------------------------------------------------------|
F#|-----------------------------9h10p9p0-----------------------------|
C#|---------8h9p8p0-5--------------------8--------8h9p8p0-5--7-5-8-7-|
G#|------------------------------------------------------------------|
D#|-0-0-0-0-----------0-0-0-0-0------------0-0-0-0-------------------|
pm                     ..
e----------------------------------------------------------------|
B----------------------------------------------------------------|
G-----------------------------9h10p9p0---------------------------|
D---------8h9p8p0-5--------------------8--------8h9p8p0-5---7--8-|
A----------------------------------------------------------------|
E-0-0-0-0-----------0-0-0-0-0------------0-0-0-0-----------0--0--|
pm                     ..                             .  .


[Verse]

D#|-------------------------------------------------------------|
A#|-------------------------------------------------------------|
F#|-------------------------------------------------------------|
C#|-------------------------------------------------------------|
G#|-----------7/---------7-------7/----------7/---------7-5-8-7-|
D#|-0-0-0-0-0---0-0-0-0-0--0-0-0----0-0-0-0-0---0-0-0-0-5-3-6-5-|
pm. .... . . ..... ...    . .....  ....

D#|---------------------------------------------------------------|
A#|---------------------------------------------------------------|
F#|---------------------------------------------------------------|
C#|---------------------------------------------------------------|
G#|-----------7/---------7-------7/----------7/----------7----8---|
D#|-0-0-0-0-0---0-0-0-0-0--0-0-0----0-0-0-0-0---0-0-0-0-0--5-0--6-|
pm. .... . . ..... ... .  . .....  .... .  .

D#|-------------------------------------------------------------|
A#|-------------------------------------------------------------|
F#|-------------------------------------------------------------|
C#|-------------------------------------------------------------|
G#|-----------7/---------7-------7/----------7/---------7-5-8-7-|
D#|-0-0-0-0-0---0-0-0-0-0--0-0-0----0-0-0-0-0---0-0-0-0-5-3-6-7-|
pm  .... . . ..... ...    . ....   ....   

D#|---------------------------------------------------------------------|
A#|---------------------------------------------------------------------|
F#|---------------------------------------------------------------------|
C#|-----------------------------------------------------1-0-1-1-1-2-1-3-|
G#|-----------7/---------7-------7/----------7/-------------------------|
D#|-0-0-0-0-0---0-0-0-0-0--0-0-0----0-0-0-0-0---0-0-0-0-1-2-1-2-1-2-1-2-|
pm  .... . . ..... ... .  . .....  .... 

   the lead in the middle goes like this, think the effect is flange:
D#|----------------22-21-|
A#|----------------------|
F#|----------------------|
C#|-///19----17----------|
G#|-------18-------------|
D#|----------------------|


[Pre-Chorus]

D#|---------------------------------------------|
A#|---------------------------------------------|
F#|---------------------------------------------|
C#|-7-7-7-7-7-7-7-7-7-7-7-7-7-7-7-7-7-7-7-7-7-7-|
G#|---------------------------------------------|
D#|-5-5-5-5-5-6-6-6-3-3-3-5-5-5-5-5-6-6-6-8-8-8-|

D#|---------------------------------------------|
A#|---------------------------------------------|
F#|---------------------------------------------|
C#|-7-7-7-7-7-7-7-7-7-7-7-7-7-7-7-7-7-7-7-7-7-7-|
G#|---------------------------------------------|
D#|-5-5-5-5-5-6-6-6-3-3-3-5-5-5-5-5-6-6-6-3-3-3-|


[Chorus]

D#|----------------------------------------------------------------0-|
A#|----------------------------------------------------------------0-|
F#|----------------------------------------------------------------0-|
C#|---------------------------------------------------2-2-1-1-02---2-|
G#|-2-2-2-2-2-2--3-5-2-2-2-2-2-2--5-3-2-2-2-2-2-2-2-2-3-3-2-2-02-2-2-|
D#|-0-0-0-0-0-0-61-3-0-0-0-0-0-0-63-1-0-0-0-0-0-0-0-0-0-0-0-0--0-0-0-|
pm. . . . . . .. . . . . . . . .. . . . . . . . . . . . . . .. .

D#|----------------------------------------------|
A#|----------------------------------------------|
F#|----------------------------------------------|
C#|-8/-7-7-7-2-2-2-2-2-2-5-5-5-7-7-7-2-2-2-2-2-2-|
G#|-8/-7-7-7-2-2-2-2-2-2-5-5-5-7-7-7-2-2-2-2-2-2-|
D#|-6/-5-5-5-0-0-0-0-0-0-3-3-3-5-5-5-0-0-0-0-0-0-|

D#|-----------------------------------------------------------------|
A#|-----------------------------------------------------------------|
F#|----------------------5---7----------------5---4-----------------|
C#|-8/-7-7-7-2-2-2-2-2-2-5---7---2-2-2--------5---4---2-2-2---------|
G#|-8/-7-7-7-2-2-2-2-2-2-3---5---2-2-2-/77777-3---2---2-2-2-/777777-|
D#|-6/-5-5-5-0-0-0-0-0-0---------0-0-0----------------0-0-0---------|

   RIFF
   gtr 1
D#|----------------------------------------------------------------------|
A#|----------------------------------------------------------------------|
F#|----------------------------------------------------------------------|
C#|----------------------------------------------------------------------|
G#|--------------------------------------------------------------7-5-8-7-|
D#|-0-0-0-0-6h7p6p0-3-0-0-0-0-0-1-2h13p12p0-6-0-0-0-0-6h7p6p0-3--5-3-6-5-|

   gtr 2
D#|------------------------------------------------------------------|
A#|------------------------------------------------------------------|
F#|-----------------------------9h10p9p0-----------------------------|
C#|---------8h9p8p0-5--------------------8--------8h9p8p0-5--7-5-8-7-|
G#|------------------------------------------------------------------|
D#|-0-0-0-0-----------0-0-0-0-0------------0-0-0-0-------------------|
pm                     ..


[Verse]

D#|-------------------------------------------------------------|
A#|-------------------------------------------------------------|
F#|-------------------------------------------------------------|
C#|-------------------------------------------------------------|
G#|-----------7/---------7-------7/----------7/---------7-5-8-7-|
D#|-0-0-0-0-0---0-0-0-0-0--0-0-0----0-0-0-0-0---0-0-0-0-5-3-6-5-|
pm. .... . . ..... ...    . .....  ....

D#|---------------------------------------------------------------|
A#|---------------------------------------------------------------|
F#|---------------------------------------------------------------|
C#|---------------------------------------------------------------|
G#|-----------7/---------7-------7/----------7/----------7----8---|
D#|-0-0-0-0-0---0-0-0-0-0--0-0-0----0-0-0-0-0---0-0-0-0-0--5-0--6-|
pm. .... . . ..... ... .  . .....  .... .  .

D#|-------------------------------------------------------------|
A#|-------------------------------------------------------------|
F#|-------------------------------------------------------------|
C#|-------------------------------------------------------------|
G#|-----------7/---------7-------7/----------7/---------7-5-8-7-|
D#|-0-0-0-0-0---0-0-0-0-0--0-0-0----0-0-0-0-0---0-0-0-0-5-3-6-7-|
pm  .... . . ..... ...    . ....   ....   

D#|---------------------------------------------------------------------|
A#|---------------------------------------------------------------------|
F#|---------------------------------------------------------------------|
C#|-----------------------------------------------------1-0-1-1-1-2-1-3-|
G#|-----------7/---------7-------7/----------7/-------------------------|
D#|-0-0-0-0-0---0-0-0-0-0--0-0-0----0-0-0-0-0---0-0-0-0-1-2-1-2-1-2-1-2-|
pm  .... . . ..... ... .  . .....  .... 

The feedback in the background of the 2nd line is an E, the closest
I could get to it was the 24th fret of the high E. The sliding bit
in the next line is just a 15th fret B string note with a long delay


[Pre-Chorus]

D#|---------------------------------------------|
A#|---------------------------------------------|
F#|---------------------------------------------|
C#|-7-7-7-7-7-7-7-7-7-7-7-7-7-7-7-7-7-7-7-7-7-7-|
G#|---------------------------------------------|
D#|-5-5-5-5-5-6-6-6-3-3-3-5-5-5-5-5-6-6-6-8-8-8-|


[Chorus]

D#|----------------------------------------------------------------0-|
A#|----------------------------------------------------------------0-|
F#|----------------------------------------------------------------0-|
C#|---------------------------------------------------2-2-1-1-02---2-|
G#|-2-2-2-2-2-2--3-5-2-2-2-2-2-2--5-3-2-2-2-2-2-2-2-2-3-3-2-2-02-2-2-|
D#|-0-0-0-0-0-0-61-3-0-0-0-0-0-0-63-1-0-0-0-0-0-0-0-0-0-0-0-0--0-0-0-|
pm. . . . . . .. . . . . . . . .. . . . . . . . . . . . . . .. .

D#|----------------------------------------------|
A#|----------------------------------------------|
F#|----------------------------------------------|
C#|-8/-7-7-7-2-2-2-2-2-2-5-5-5-7-7-7-2-2-2-2-2-2-|
G#|-8/-7-7-7-2-2-2-2-2-2-5-5-5-7-7-7-2-2-2-2-2-2-|
D#|-6/-5-5-5-0-0-0-0-0-0-3-3-3-5-5-5-0-0-0-0-0-0-|

D#|-----------------------------------------------------------------|
A#|-----------------------------------------------------------------|
F#|----------------------5---7----------------5---4-----------------|
C#|-8/-7-7-7-2-2-2-2-2-2-5---7---2-2-2--------5---4---2-2-2---------|
G#|-8/-7-7-7-2-2-2-2-2-2-3---5---2-2-2-/77777-3---2---2-2-2-/777777-|
D#|-6/-5-5-5-0-0-0-0-0-0---------0-0-0----------------0-0-0---------|

   POST CHORUS
D#|------------------------------------------------------------------------|
A#|------------------------------------------------------------------------|
F#|------------------------------------------------------------------------|
C#|----------------------------------------------------------------------2-|
G#|--------------------------------------------------------------7-5-8-7-2-|
D#|-0-0-0-0-6h7p6p0-3-0-0-0-0-0-1-2h13p12p0-6-0-0-0-0-6h7p6p0-3--5-3-6-5-0-|

   gtr 2
D#|--------------------------------------------------------------------|
A#|--------------------------------------------------------------------|
F#|-----------------------------9h10p9p0-------------------------------|
C#|---------8h9p8p0-5--------------------8--------8h9p8p0-5--7-5-8-7-2-|
G#|------------------------------------------------------------------2-|
D#|-0-0-0-0-----------0-0-0-0-0------------0-0-0-0-------------------0-|


[Bridge]

   gtr 1 with some trippy effects
D#|-12---|----------|------------12-|
A#|---12-|-14----14-|---------12----|
F#|------|----12----|-X4-then-------|
C#|------|----------|---------------|
G#|------|----------|---------------|
D#|------|----------|---------------|

   gtr2 with some autowah
D#|---|---|-----------|---|---------|---------|
A#|---|---|-----------|---|-------0-|-------0-|
F#|---|---|-----------|---|-----2---|-----2---|
C#|---|---|-X4-then---|---|---1-----|---1-----|
G#|---|---|-----------|---|-2-------|-2-------|
D#|-0-|-5-|---------5-|-0-|---------|---------|

   and now, for poops and giggles, the piano line:
D#|-12-14-15-14-12-14-15-17-15-14-17-|
A#|----------------------------------|
F#|----------------------------------|
C#|----------------------------------|
G#|----------------------------------|
D#|----------------------------------|

D#|-20-19-17-17-19-20-19-19-19-17-15---14-15-14--14-15-14-14-15-14-15-17-|
A#|----------------------------------------------------------------------|
F#|----------------------------------------------------------------------|
C#|----------------------------------------------------------------------|
G#|----------------------------------------------------------------------|
D#|----------------------------------------------------------------------|


[Chorus]

D#|----------------------------------------------------------------------0-|
A#|----------------------------------------------------------------------0-|
F#|----------------------------------------------------------------------0-|
C#|-------------------------------------------------------2-2-1-1-0--2---2-|
G#|-2-2-2-2-2-2--3---5-2-2-2-2-2-2--5---3-2-2-2-2-2-2-2-2-3-3-2-2-0--2-2-2-|
D#|-0-0-0-0-0-0-6--1-3-0-0-0-0-0-0-6--3-1-0-0-0-0-0-0-0-0-0-0-0-0--0---0-0-|
pm. . . . . . .. . . . . . . . .. . . . . . . . . . . . . . .. .

D#|------------------------------------------------------------------------|
A#|------------------------------------------------------------------------|
F#|------------------------------------------------------------------------|
C#|-8/-7---7-7-2-2----2-2-2-2-5-5-5-------7-7-7----2-------2-------2-2-2-2-|
G#|-8/-7---7-7-2-2----2-2-2-2-5-5-5-------7-7-7----2-------2-------2-2-2-2-|
D#|-6/-5---5-5-0-0----0-0-0-0-3-3-3-------5-5-5----0-------0-------0-0-0-0-|

D#|-------------------------------------------------------------------------------------------------|
A#|-------------------------------------------------------------------------------------------------|
F#|---------------------------5--------7-----------------------------------5----4-------------------|
C#|-8/-7---7-7-2-2----2-2-2-2-5--------7---------2-2------2----------------5----4---2-2---2---------|
G#|-8/-7---7-7-2-2----2-2-2-2-3--------5---------2-2------2-/77777---------3----2---2-2---2-/777777-|
D#|-6/-5---5-5-0-0----0-0-0-0--------------------0-0------0-------------------------0-0---0---------|

   gtr1
D#|-------------------------------------------------------------------------------------------------------|
A#|-------------------------------------------------------------------------------------------------------|
F#|-------------------------------------------------------------------------------------------------------|
C#|-----------------------------------------------------------------------------------------------------2-|
G#|---------------------------------------------------------------------------------------------7-5-8-7-2-|
D#|-0-0--0-0--6h7p6p0-----3--0-0----0-0--0-1----2h13p12p0--------------6--0-0-0-0-6h7p6p0----3--5-3-6-5-0-|

   gtr 2
D#|---------------------------------------------------------------|
A#|---------------------------------------------------------------|
F#|-------------------------9h10p9p0------------------------------|
C#|--------8h9p8p0-5-----------------8-------8h9p8p0-5--7-5-8-7-2-|
G#|-------------------------------------------------------------2-|
D#|-0-00-0-----------0-0000------------0-00-0-------------------0-|



************************************

| h  Hammer-on
| p  Pull-off
| /  Slide up
| X  dead note 
| pm palm mute                  

************************************

            
            
Suggest correction
Creating personal tab
Creating personal tab
You can edit any tab online and save it as your Personal.

You can edit, replace or remove any tab part or add personal notes – all changes will be seen only by you.

Personal tabs can be accessed anytime from any device, even offline.
Learn more »
comments
print report bad tab
2 comments total.
0 reply
Wild_Rose 140 Mar 28, 2014 02:22 AM

good job!!!

0 reply
Jonny Ford 205 Sep 07, 2014 10:01 AM

Great job man this sounds great.

guest
You may want to rate the tab now too:
select rating
Wanna post a correction for this tab? Suggest correction