Oops, an error
Loading. Please wait.
We have an official Going To Hell tab made by UG professional guitarists. Check out the tab »
×
38,112 views 33 this week
5 commentsread comments
1 2 3 4 5
x 7
add to favorites
×
Save as Personal and add changes to this tab that will be seen only by you. Learn more ›
×
You can save this tab as Personal to edit and correct it or add notes. All changes will be seen only by you. Learn more »
launch autoscroll
font size
0
reset
how to read this tab
guitar tuner
edit
Autoscroll
slow
fast
+/-
esc
set tempo
stop
Author
Difficulty
intermediate
[Intro]

(repeat it 2x)

e|---------------------------------------|
B|---------------------------------------|
G|---------------------------------------|
D|--0x---------5----0x-------------------|
A|--0x-2p--5h6h7-7--0x-2p--5h7p5--3v~-5v~|
E|--0x--------------0x-------------------|
   (2x)           (2x)                      

e|---------------------------------------|
B|---------------------------------------|
G|---------------------------------------|
D|--0x---------5----0x------------5-/-7--|
A|--0x-2p--5h6h7-7--0x-2p--5h7p5--3-/-5--|
E|--0x--------------0x-------------------|
   (2x)           (2x)                      

 Riff (repeat it 2x)
                         3x
e|---------------------------|--------------------------------|
B|---------------------------|--------------------------------|
G|---------------------------|--------------------------------|
D|--6-x-6--6-x-6--6-x-6--8-8-|-6-x-6--6-x-6--6-x-6---11/12----|
A|--7-x-7--7-x-7--7-x-7--9-9-|-7-x-7--7-x-7--7-x-7---12/13----|
E|--5-x-5--5-x-5--5-x-5--5-5-|-5-x-5--5-x-5--5-x-5---10/11----|
  (2x)  (2x)  (2x)       (2x)  (2x)  (2x) 
       

[Outro]

e|-------------------------------|
B|-------------------------------|
G|-------------------------------|
D|--(12)--2~--5~-----------------|
A|--(13)--2~--5~-----------------|
E|--(11)--2~--5~-----------------|

            
[Chorus]

(repeat it 2x)

e|---------------------------------------|
B|---------------------------------------|
G|---------------------------------------|
D|--0x---------5----0x-------------------|
A|--0x-2p--5h6h7-7--0x-2p--5h7p5--3v~-5v~|
E|--0x--------------0x-------------------|
  (2x)            (2x)                      

e|-----------------------------------------|
B|-----------------------------------------|
G|-----------------------------------------|
D|--0-x---------5-----5-5~~----------------|
A|--0-x-2p--5h6h7-7---7-7~~----------------|
E|--0-x---------------5-5~~----------------|
  (2x)                                                 


************************************

| x    Dead note
| (n)  Ghost note
| h    Hammer-on
| p    Pull-off
| /    Slide up
| ~    Vibrato

************************************

            
            
Suggest correction
Creating personal tab
Creating personal tab
You can edit any tab online and save it as your Personal.

You can edit, replace or remove any tab part or add personal notes – all changes will be seen only by you.

Personal tabs can be accessed anytime from any device, even offline.
Learn more »
comments
print report bad tab
5 comments total. Showing first comments.
+2 reply
nikh158 20 Oct 29, 2013 03:41 AM

Probably a good idea if you include the tuning on this. Just saying....

0 reply
Tomozaurus 230 Nov 26, 2013 09:27 PM

The actual song is in drop D + 1/2 step down (low to high: C# G# C# F# A# D#), this tab still doesn't quite sound right tuned correctly though.

0 reply
TribexFire 10 Jul 11, 2014 01:31 AM

It sounds more right http://www.songsterr.com/a/wsa/pretty-reckless-going-to-hell-tab-s386475t0

guest
You may want to rate the tab now too:
select rating
Wanna post a correction for this tab? Suggest correction