Oops, an error
Loading. Please wait.

Little Boys In Blue tab

1,013 views 1 this week
no commentswrite comment
1 2 3 4 5
1 last vote to show rating
add to favorites
×
Save as Personal and add changes to this tab that will be seen only by you. Learn more ›
×
You can save this tab as Personal to edit and correct it or add notes. All changes will be seen only by you. Learn more »
launch autoscroll
font size
0
reset
how to read this tab
guitar tuner
edit
Autoscroll
slow
fast
+/-
esc
set tempo
stop
Author
The Professionals
Little Boys In Blue
From The Best of the Professionals


INTRO/MAIN RIFF (LEAD GUITAR) 2X


E------------------------|
B------------------------|
G---8----8-----6---------|
D-----------9-----9------|
A------------------------|
E------------------------|

E------------------------|
B--8--9--11--------------|
G------------------------|
D------------------------|
A------------------------|
E------------------------|

INTRO AND VERSE

E----------------------------------|
B----------------------------------|
G--6-6-6-6-9-9-9-9-----------------|
D--6-6-6-6-9-9-9-9-9-9-9-9-9-9-9-9-|
A--4-4-4-4-7-7-7-7-9-9-9-9-9-9-9-9-|
E------------------7-7-7-7-7-7-7-7-|

CHORUS (2X)

E---------------------------------------------------------------------|
B---------------------------------------------------------------------|
G--11-11-11-11-11-11-11-11-11-11-11-11-11-9-9-9-9-9-9-9-9-9-9-9-9-9-9-|
D--11-11-11-11-11-11-11-11-11-11-11-11-11-9-9-9-9-9-9-9-9-9-9-9-9-9-9-|
A--9--9--9--9--9--9--9--9--9--9--9--9--9--7-7-7-7-7-7-7-7-7-7-7-7-7-7-|
E---------------------------------------------------------------------|

E------------------------------------------------------|
B------------------------------------------------------|
G--------------------------------9-9-9-9-9-9-9-9-9-9-9-|
D--11-11-11-11-11-11-11-11-11-11-9-9-9-9-9-9-9-9-9-9-9-|
A--11-11-11-11-11-11-11-11-11-11-7-7-7-7-7-7-7-7-7-7-7-|
E--9--9--9--9--9--9--9--9--9--9------------------------|

GUITAR SOLO (4X)

E--9-9-9-9-9-9-9-9-9-9-9-9-9-9-9-9-9-9-9-9-9-9-9-9-9-9-2-2--2-2-2-5-5--5-5-9-9-|
B--9-9-9-9-9-9-9-9-9-9-9-9-9-9-9-9-9-9-9-9-9-9-9-9-9-9-2-2--2-2-2-5-5--5-5-9-9-|
G---------------------------------------------------------4b---------7b--------|
D------------------------------------------------------------------------------|
A------------------------------------------------------------------------------|
E------------------------------------------------------------------------------|

E-9-9-9-9-9-9-9-9-9-9---------9-9-9-9-9-|
B-9-9-9-9-9-9-9-9-9-9---------9-9-9-9-9-|
G-----------------------11b-------------|
D---------------------------------------|
A---------------------------------------|
E---------------------------------------|


E---------------------------------------------------------------|
B---------------------------------------------------------------|
G--6-6-6-6-6-6-6-6-9-9-9-9-9-9-9-9------------------------------|
D--6-6-6-6-6-6-6-6-9-9-9-9-9-9-9-9-9-9-9-9-9-9-9-9-9-9----------|
A--4-4-4-4-4-4-4-4-7-7-7-7-7-7-7-7-9-9-9-9-9-9-9-9-9-9----------|
E----------------------------------7-7-7-7-7-7-7-7-7-7----------|

OUTRO (RTHYM GUITAR)

E------------------------------------------------------|
B------------------------------------------------------|
G--6-6-6-6-6-6-6-6-6-9-9-9-9-9-9-----------------------|
D--6-6-6-6-6-6-6-6-6-9-9-9-9-9-9-9-9-9-9-9-9-9-9-9-9-9-|
A--4-4-4-4-4-4-4-4-4-7-7-7-7-7-7-9-9-9-9-9-9-9-9-9-9-9-|
E--------------------------------7-7-7-7-7-7-7-7-7-7-7-|

OUTRO (LEAD GUITAR)

E-----------------------------------------------------------------------|
B----7---7---7---7---7---7---7---7---7---7---7---7---7---7--------------|
G--9b--9b--9b--9b--9b--9b--9b--9b--9b--9b--9b--9b--9b--9b----8---8----6-|
D-------------------------------------------------------------------9---|
A-----------------------------------------------------------------------|
E-----------------------------------------------------------------------|

E---------------------------------------|
B---------------------------------------|
G--9---8---8--9--11----8---8-----6------|
D-----------------------------9-----9---|
A---------------------------------------|
E---------------------------------------|


SONG STRUCTURE

INTRO/MAIN RIFF
VERSE
CHORUS
INTRO/MAIN RIFF
VERSE
CHORUS
GUITAR SOLO
OUTRO


LYRICS:

LITTLE BOYS LIKE YOU
THEY'VE GOT A JOB TO DO
IN UNIFORM, I'LL TELL YOU WHAT TO DO
HELP OLD LADIES ACROSS THE STREET
DIRECT THE TRAFFIC IN YOUR SLEEP
IT'S A JOB THAT YOU WON'T MIND
BY ALWAYS WORKING OVERTIME
COME AND SEE ME ANYTIME
BUT YOU'LL HAVE TO TOW THE LINE
AND I'M NOT QUITE (TENSE AT ALL)? 
BUT I'LL REALLY HAVE A GO 

AND WHEN I'M WALKING ON THE STREETS
YOU'D LIKE TO KNOW JUST WHAT I THINK
DON'T YOU THINK I LOOK A FOOL
YOU SHOULD DREAD ON BACK TO SCHOOL
DRINKING KNOW DOWN BY THE YARD
YOU'RE SO TOUGH AND YOU'RE SO HARD
IF YOU TRY YOU CAN FEEL IT
DON'T LOOK NOW CAUSE YOU SHOULD WIN 'EM
BABY FACED AND READY TO KILL
ANY BOY WHOSE WRITTEN HIS WILL ASK,"YOU READY?"

LITTLE BOYS LIKE YOU

            
            
Suggest correction
Creating personal tab
Creating personal tab
You can edit any tab online and save it as your Personal.

You can edit, replace or remove any tab part or add personal notes – all changes will be seen only by you.

Personal tabs can be accessed anytime from any device, even offline.
Learn more »
Give kudos to tab author, rate the tab!
1 2 3 4 5
comments
print report bad tab
guest
You may want to rate the tab now too:
select rating
Wanna post a correction for this tab? Suggest correction