Oops, an error
Loading. Please wait.

I Miss You tab

version 1
version 1

Whole song

4,389 views 9 this week
2 commentsread comments
1 2 3 4 5
x 3
add to favorites
×
Save as Personal and add changes to this tab that will be seen only by you. Learn more ›
×
You can save this tab as Personal to edit and correct it or add notes. All changes will be seen only by you. Learn more »
launch autoscroll
font size
0
reset
how to read this tab
guitar tuner
edit
Autoscroll
slow
fast
+/-
esc
set tempo
stop
Author
Difficulty
-------------------------------------------------------------------------------
                             I MISS YOU - The Quakes
-------------------------------------------------------------------------------
Tabbed by: Zack the Ripper
Email: thekillr@hotmail.com

Tuning: Standard

Rhythm Guitar: Verse/Chorus just strum these chords for chorus
e|---------3~---------------------------|
B|-5~--3~--5~--[3~]---------------------|
G|-7~--5~--5~--[5~]---------------------|
D|-7~--5~--4~--[5~]---------------------|
A|-6~--4~------[4~]---------------------|
E|------------------5-5-5-5-3-0-4-3-0~--|

Lead Guitar: Verse
e|------------------------------------------------------------------------------|
B|------------------------------------------------------------------------------|
G|------------------------------------------------------------------------------|
D|------------------------------------------------------------------------------|
A|-3-5-5^5~-3-5^5-3-------------------------------------------------------------|
E|------------------5-0\--------------------------------------------------------|

I'll put up the solo when I get around to tabbing it. Good luck shredders.

| ^  pull up
| [] chorus only
| /  slide up
| \  slide down
| h  hammer-on
| p  pull-off
| ~  vibrato
| +  harmonic
| x  Mute note
===============================================================================

            
            
Suggest correction
Creating personal tab
Creating personal tab
You can edit any tab online and save it as your Personal.

You can edit, replace or remove any tab part or add personal notes – all changes will be seen only by you.

Personal tabs can be accessed anytime from any device, even offline.
Learn more »
Give kudos to tab author, rate the tab!
1 2 3 4 5
comments
print report bad tab
2 comments total.
0 reply
ascarymovie 193 Jun 23, 2010 03:24 PM

i miss you- Quakes
I Miss You By: The Quakes

Intro- Acoustic guitar
e---1------0-----3----5-5-5--5p3---6-5-3-----|
b---3------1-----0---------------3--------3--|
g---2------2-----0---------------------------|
d---0------2-----0---------------------------|
a---0------0-----2---------------------------|
e-----------------3--------------------------|

Intro for Electric guitar
e-------------------------------------|
b-------------------------------------|
g---------------------2---------------|
d------3-2--0-3-2--0-----2------------|
a-0-3---------------------------------|
e-------------------------------------|

Chorus- not really sure on strumming
e----------------------------------------------------------
b---------------------------------------------------------
g-7-7-7-7-7-7-7-7--5-5-5-5-5-5-5-5--3-3--3-3-3-3-3-3-------
d-7-7-7-7-7-7-7-7--5-5-5-5-5-5-5-5--3-3--3-3-3-3-3-3-------
a-5-5-5-5-5-5-5-5--3-3-3-3-3-3-3-3--1-1--1-1-1-1-1-1-----
e----------------------------------------------------------

0 reply
urielwolfsbane 10 Jul 30, 2014 03:49 AM

Lack of accuracy. Tab incomplete. Clearly wrong.

guest
You may want to rate the tab now too:
select rating
Wanna post a correction for this tab? Suggest correction