Oops, an error
Loading. Please wait.

Friday Night tab

7,061 views 24 this week
1 commentread comment
1 2 3 4 5
1 last vote to show rating
add to favorites
×
Save as Personal and add changes to this tab that will be seen only by you. Learn more ›
×
You can save this tab as Personal to edit and correct it or add notes. All changes will be seen only by you. Learn more »
launch autoscroll
font size
0
reset
how to read this tab
guitar tuner
edit
Autoscroll
slow
fast
+/-
esc
set tempo
stop
Hey, sounds right, but not 100% sure. Let me know. Rock on.

x5x play chord as moving off chord. Makes sense to me but can't explain it, sorry. 
to the song and personalise.

Intro
e-------5-55-5-55-----6-66-66-----7-77-7-77-------------------|
B-------------------------------------------------------------|
G-----------------6-6---------7-7-----------9--9-9--9-9-9-9-9-|
D--7-7------------6-6---------7-7-----------9--9-9--9-9-9-9-9-|
A--7-7------------4-4---------5-5-----------7--7-7--7-7-7-7-7-|
E--5-5--------------------------------------------------------|

Bass riff
G-----------------------------------------------------|
D-----------------------------------------------------|
A-----------------4-4-4-7-4--5-5-5-55-54-2-0-7-7-7-77-|
E--5-5-5-55-54-2-0------------------------------------|

Verse STRUMMING Listen to the song
e-------------|
B-------------|
G-----6--7--9-|
D--7--6--7--9-|
A--7--4--5--7-|
E--5----------|

Chorus STRUMMING Listen to song
e---------------------------|
B---------------------------|
G-----9--11--7-----9--11--7-|
D--7--9--11--7--7--9--11--7-|
A--7--7--9---5--7--7--9---5-|
E--5------------5-----------|

Verse STRUMMING Listen to the song
e-------------|
B-------------|
G-----6--7--9-|
D--7--6--7--9-|
A--7--4--5--7-|
E--5----------|

Chorus STRUMMING Listen to song
e---------------------------|
B---------------------------|
G-----9--11--7-----9--11--7-|
D--7--9--11--7--7--9--11--7-|
A--7--7--9---5--7--7--9---5-|
E--5------------5-----------|

Bridge                                            STRUMMING
e------------------------------------------------------------|
B------------------------------------------------------------|
G------------------------66-x6x-77-x7x-77-x7x-77-----6--7--9-|
D--77-7-77-7-77-7-77-x7x-66-x6x-77-x7x-77-x7x-77--7--6--7--9-|
A--77-7-77-7-77-7-77-x7x-44-x4x-55-x5x-99-x9x-55--7--4--5--7-|
E--55-5-55-5-55-5-55-x5x--------------------------5----------|

Chorus STRUMMING Listen to song
e----------------------------------------------------------------------|
B----------------------------------------------------------------------|
G-----9--11--7-----9--11--7-----6--11--7-----6--11--7-77-7-11-9-7-9----|
D--7--9--11--7--7--9--11--7--7--6--11--7--7--6--11--7-77-7-11-9-7-9--7-|
A--7--7--9---5--7--7--9---5--7--4--9---5--7--4--9---5-55-5-9--7-5-7--7-|
E--5------------5------------5------------5--------------------------5-|

That's it, apart from the last chord which I can't for the life of me seem to find right 
Maybe when I have more time. Thanks.

            
            
Suggest correction
Creating personal tab
Creating personal tab
You can edit any tab online and save it as your Personal.

You can edit, replace or remove any tab part or add personal notes – all changes will be seen only by you.

Personal tabs can be accessed anytime from any device, even offline.
Learn more »
Give kudos to tab author, rate the tab!
1 2 3 4 5
comments
print report bad tab
1 comment total.
0 reply
nojaf 41 Apr 17, 2012 11:29 AM

Nice, verse is ok. Intro doesn't sounds right. But thanks for uploading this.

guest
You may want to rate the tab now too:
select rating
Wanna post a correction for this tab? Suggest correction