Oops, an error
Loading. Please wait.

5 On The 5 tab

version 1
version 1

Whole song

7,721 views 3 this week
7 commentsread comments
1 2 3 4 5
x 6
add to favorites
×
Save as Personal and add changes to this tab that will be seen only by you. Learn more ›
×
You can save this tab as Personal to edit and correct it or add notes. All changes will be seen only by you. Learn more »
launch autoscroll
font size
0
reset
how to read this tab
guitar tuner
edit
Autoscroll
slow
fast
+/-
esc
set tempo
stop
Author
Difficulty
---------------------------------------
| Five On The Five                      |
| Live Performance                      |
| The Raconteurs                        |
| Written by Jack White/Brendan Benson  |
| Tabbed by Anthony Griffin             |
 ---------------------------------------
 ----------------------
| CHORDS:    EADGBE     |
|            ------     |
| C5:        x355xx     |
| C#5:       x466xx     |
| D5:        x577xx     |
| F5:        133xxx     |
| G5:        355xxx     |
 ----------------------

Intro & breaks:

     D5  C#5     C5   F5 G5
e-----------------------------------|
B-----------------------------------|
G---7-7-x-6-6-x-5-5-x---------------|
D---7-7-x-6-6-x-5-5-x-3/5-5-5-------|
A---5-5-x-4-4-x-3-3-x-3/5-5-5-------|
E---------------------1/3-3-3-------|


verse:

    D5    C#5    C5      F5 G5
e|-------------------------------------|
B|-------------------------------------|
G|-------------------------------------|
D|-------------------------------------|
A|--5-5-x-4-4-x-3-3-x------------------|
E|-----------------------1h3-3-3-------|

The decision that was left between you and me
And the division that was there it was hard to see
[...] with you in mind
And I'm scared of something: my baby's on the line

chorus:

         F5                 A#5 
I've got 5 on the 5, you better take your time
         G5             C5
Doing it all alone (o-oh, o-o-oh)
         F5               A#5                                G5 A5 F5 A#5 G5
If we keep it in line or ignore all the signs it keeps adding up

Now back to you

(Repeat)


            
            
Suggest correction
Creating personal tab
Creating personal tab
You can edit any tab online and save it as your Personal.

You can edit, replace or remove any tab part or add personal notes – all changes will be seen only by you.

Personal tabs can be accessed anytime from any device, even offline.
Learn more »
comments
print report bad tab
7 comments total. Showing first comments.
0 reply
lazlow325i 10 Oct 01, 2006 05:07 PM

If you can tell me where I can hear this song, I'll give you five stars.

0 reply
thewhite549 320 Oct 09, 2006 01:47 PM

on You Tube

0 reply
thewhite549 320 Oct 10, 2006 04:08 AM

i think the song start like that:

------------------------------|
------------------------------|
--0-0-7--0-0-6--0-0-5--0-0-4--| x2
------------------------------|
------------------------------|
------------------------------|

guest
You may want to rate the tab now too:
select rating
Wanna post a correction for this tab? Suggest correction