Oops, an error
Loading. Please wait.
We have an official Consolers Of The Lonely tab made by UG professional guitarists. Check out the tab »
×
11,351 views 6 this week
1 commentread comment
1 2 3 4 5
1 last vote to show rating
add to favorites
×
Save as Personal and add changes to this tab that will be seen only by you. Learn more ›
×
You can save this tab as Personal to edit and correct it or add notes. All changes will be seen only by you. Learn more »
launch autoscroll
font size
0
reset
guitar tuner
edit
Autoscroll
slow
fast
+/-
esc
set tempo
stop
Author
-------------------------------------------------------------------------------
			     CONSOLER OF THE LONELY - The Racontuers
-------------------------------------------------------------------------------

Tabbed By : jxmxsc
Tuning: Standard

This tab is for the benefit of my friend, and is a simplified version of the bass in the 
Look elsewhere for the fills in the chorus and stuff.

INTRO: Guitar Only until...

G|---------|
D|---------|
A|---------|
E|---3~----|

Then wait for the verse

VERSE:
G|-----------------------------|
D|-----------------------------|
A|-----------------------------|
E|---3---------3\\1//3---------|  x4

G|-----------------------------|
D|-----------------------------|
A|---3---------3\\1//3---------|
E|-----------------------------|  x2

G|-------------|
D|-------------|
A|---1-1-------|
E|--------1-1--|

G|-----------------------------|
D|-----------------------------|
A|-----------------------------|
E|---3---------3\\1//3---------|  x2


CHORUS:
G|----------------------------------|
D|----------------------------------|
A|-5-5-5-5-5-5-5-5\1-1-1-1-1-1-1-1--|
E|----------------------------------|  x2

GUITAR INTRO w/ BASS:
G|-----------------------3-2--------|
D|----------------------------------|
A|----------------------------------|
E|---3---3-------3-3-3-3------------|  x3
              pm - - - -

Pause for guitar only
Then (repeat x3 and pause) twice more
Then back to the verse (except just x2 on the first part rather than x4)
Then chorus again
And then...

CRAZY JAM THING:
G|--------------|
D|--------------|
A|--------------|
E|-1/3333333----|  x7

G|--------------|
D|--------------|
A|------1-----1-|
E|--1-1---1-1---|  x2

Pause for guitar

G|--------------|
D|--------------|
A|------1-----1-|
E|--1-1---1-1---|

G|-------------------------------------|
D|-------------------------------------|
A|----------------------------1-1------|
E|-1-3------1-3------1-3---------------|  x2

G|-------------------------------------|
D|-------------------------------------|
A|----------------------------1-1------|
E|-1-3-1-3--1-3-1-3--1-3-1-3-----------|

G|-------------------------------------|
D|-------------------------------------|
A|----------------------------1-1-1-1--|
E|-1-3-1-3--1-3-1-3--1-3-1-3-----------|

G|--------------|
D|--------------|
A|--------------|
E|-1/3333333----|  x3

G|--------------|
D|--------------|
A|------1-----1-|
E|--1-1---1-1---|  x2

G|--------------|
D|--------------|
A|--------------|
E|-1-3~---------|

Hope thats clear enough
jxmxsc

| /  slide up
| \  slide down
| h  hammer-on
| p  pull-off
| ~  vibrato
| +  harmonic
| x  Mute note
===============================================================================

            
            
Suggest correction
Creating personal tab
Creating personal tab
You can edit any tab online and save it as your Personal.

You can edit, replace or remove any tab part or add personal notes – all changes will be seen only by you.

Personal tabs can be accessed anytime from any device, even offline.
Learn more »
Give kudos to tab author, rate the tab!
1 2 3 4 5
comments
print report bad tab
1 comment total.
+1 reply
hedwigas 10 May 21, 2015 05:56 AM

1:05 (Drop D tuning!)

G|------------------------------10--8------8------------------->
D|-----------------------8--10---------10-----10--9--8--10--8-->
A|--5--5-----5--5--7--8---------------------------------------->
D|--------7---------------------------------------------------->

G|-------------------------------------------------
D|-------------------------------------3--------5--
A|--10--8--10-----5--5-----5--5--3--1-----1--3-----
D|----------------------7--------------------------

1:15

G|--------------------------|------------------------------
D|--------------------------|------------------------------
A|--------------------------|----------1--0----------1--0--
D|--5--5/0--5--5/0--5--5/0--|--5--5/0--------5--5/0--------

guest
You may want to rate the tab now too:
select rating
Wanna post a correction for this tab? Suggest correction