Oops, an error
Loading. Please wait.

Salute Your Solution tab

version 1
version 1

Whole song

Interactive

44,281 views 24 this week
7 commentsread comments
1 2 3 4 5
x 16
add to favorites
×
Save as Personal and add changes to this tab that will be seen only by you. Learn more ›
×
You can save this tab as Personal to edit and correct it or add notes. All changes will be seen only by you. Learn more »
launch autoscroll
font size
0
reset
how to read this tab
guitar tuner
backing track
0:00
0:00
edit
Autoscroll
slow
fast
+/-
esc
set tempo
stop
Author
Difficulty
Unregistered
intermediate
e|-x-xx--------------|
B|-x-xx--------------|
G|-x-xx--99-7--------| (repeat)
D|-x-xx--99-7-7-999--| (without the strumming)
A|-x-xx--77-5-7-999--|
E|-x-xx-------5-777--|

(Distorted Bass riff)
G|------------------|
D|------------------|
A|-----------2/5-5--|
E|--0-0--3-5--------|

e|-----|
B|-----|
G|-99--|
D|-99--|
A|-77--|
E|-----|

e|---------------------|
B|---------------------|
G|--99-----------77-99-|
D|--99-----------77-99-| (repeat)
A|--77-----------55-77-|
E|---------------------|

e|---------------|
B|---------------|
G|---99-7--------| (repeat)
D|---99-7-7-999--|
A|---77-5-7-999--|
E|--------5-777--|

e|---------------------|
B|---------------------|
G|--99-----------77-99-|
D|--99-----------77-99-| (repeat)
A|--77-----------55-77-|
E|---------------------|

e|-----|
B|-----|
G|--2--|
D|--2--|  (Let ring)
A|--0--|
E|-----|

(Synth thingy)
e|--6-5-3-5-3-5-6----6-5-3-5-3-5-6----6-5-3-5-3-5-6-6-6-5-3----|
B|----------------------------------------------------------5--|
G|-------------------------------------------------------------|
D|-------------------------------------------------------------|
A|-------------------------------------------------------------|
E|-------------------------------------------------------------|

e|-----------------------------------|
B|-----------------------------------|
G|-----------------------------------|
D|----------------------------5-5----| (then repeat this an octave above...
A|--------------5-----5-7-5-------7--|  figure it out)
E|--0-3-5---5-7-----7-------7--------|

e|--18-17-15-17-15-17-18---18-17-15-17-15-17-18---18-17-15-17-15-17-18-18-18-18-17-15-------|
B|------------------------------------------------------------------------------------17/0--|
G|------------------------------------------------------------------------------------------|
D|------------------------------------------------------------------------------------------|
A|------------------------------------------------------------------------------------------|
E|------------------------------------------------------------------------------------------|

(Guitar with fuzz)
e|---------------------------------------------------------------|
B|---------------------------------------------------------------|
G|---------------------------------------------------------------|
D|------------------------5/6-----5/6----------------------------| (repeat)
A|--------------5-----5/7-----7-------7-----5/7------------------| 
E|--0-3-5---5/7---------------------------------7-----5/7-3br0---|

[Solo]
(Brendan keeps repeating this part)
e|---------------|
B|---------------|
G|---99-7--------|
D|---99-7-7-999--|
A|---77-5-7-999--|
E|--------5-777--|

(Then it changes into this)
e|-------------------|
B|-------------------|
G|------------4-77---|
D|-22----5-7--4-77---| (repeat)
A|-22----5-7--2-55---|
E|-00----3-5---------|

(Ends with)
e|------|
B|------|
G|---2--|
D|---2--| (let ring)
A|---0--|
E|------|

e|--------------|
B|--------------|
G|--------------|
D|--------------|
A|--------------|
E|--5-3-0-3~~~~-|



************************************

| x   Dead note
| /   Slide up
| br  Bend release
| ~   Vibrato

************************************

            
            
Suggest correction
Creating personal tab
Creating personal tab
You can edit any tab online and save it as your Personal.

You can edit, replace or remove any tab part or add personal notes – all changes will be seen only by you.

Personal tabs can be accessed anytime from any device, even offline.
Learn more »
comments
print report bad tab
7 comments total. Showing first comments.
0 reply
john45 10 Apr 01, 2008 10:30 AM

I think this tab looks pretty good and thorough, however, I think B's parts sound nicer with full chords though. Other than that, perfect.

0 reply
striberger 10 Apr 01, 2008 12:53 PM

Thanks for the tab, nice job!

0 reply
lespaul5391 31 Apr 02, 2008 11:53 PM

great job, looks good!

guest
Wanna post a correction for this tab? Suggest correction