Oops, an error
Loading. Please wait.
We have an official Steady As She Goes tab made by UG professional guitarists. Check out the tab »
×
2,204 views 6 this week
no commentswrite comment
1 2 3 4 5
3 more votes to show rating
add to favorites
×
Save as Personal and add changes to this tab that will be seen only by you. Learn more ›
×
You can save this tab as Personal to edit and correct it or add notes. All changes will be seen only by you. Learn more »
launch autoscroll
font size
0
reset
guitar tuner
backing track
0:00
0:00
edit
Autoscroll
slow
fast
+/-
esc
set tempo
stop
Author
Difficulty
-------------------------------------------------------------------------------
                      STEADY AS SHE GOES - The Raconteurs
-------------------------------------------------------------------------------

Tabbed By: IcyMidnight
e-mail:    icymidnight@gmail.com

Tuning:    Standard


RIFF 1a
G|---------------|
D|---------------|
A|-2-1--2--------|
E|----2--5-5-0-2-|

RIFF 1b
G|---------------|
D|---------------|
A|-2-1--2--------|
E|----2--5-5-02--|

RIFF 1cd
RIFF 1c               RIFF 1d
G|-------------------|-------------------|
D|-------------------|-----------4-2-----|
A|-2-1--2----------0-|-2-1--2--------5-4-|
E|----2--5-5-0-2-4---|----2--5-5---------|

RIFF 2a
G|---------------------------------------|
D|-5-5-5---567-7-7---7---------799999754-|
A|--------5--------7---2-22222-----------|
E|---------------------------------------|

RIFF 2b
G|---------------------------------------|
D|-5-5-5---567-7-7---7---------799999754-|
A|--------5--------7---2-222-2-----------|
E|---------------------------------------|

RIFF 3a
G|------------------------------9--9-----|
D|-5-5-5---567-7-7---7-2-22222/9-9---9/2-|
A|--------5--------7---------------------|
E|---------------------------------------|

RIFF 3b
G|-----------------------------9--9------|
D|-5-5-5---567-7-7-7-2-2-2222/9-9---9/2--|
A|--------5------------------------------|
E|---------------------------------------|

RIFF 4i                     Sequence
G|-444444444444444----|     
D|----------------4/0-|     RIFF 1a  x3
A|--------------------|     RIFF 1c
E|--------------------|     RIFF 1a  x2
                            RIFF 1d
RIFF 4a                     RIFF 1cd
G|--------------------|     RIFF 4a  x2
D|--------------------|     RIFF 1cd x2
A|-2--24----20-02-----|     RIFF 4a  x2
E|------2--2-----0245-|     RIFF 2a
                            RIFF 3a
RIFF 4b                     RIFF 1cd x2
G|--------------------|     RIFF 1c  x2
D|--------------------|     
A|-2-22---------------|     RIFF 4a x2
E|-----2-225-550000---|     RIFF 2b
                            RIFF 3b
RIFF 4c                     RIFF 1b
G|--------------------|     RIFF 1d
D|--------------------|     RIFF 1cd
A|-2-22---------------|     RIFF 1c
E|-----2-2255550000---|     RIFF 1b
                            
RIFF 4d                     RIFF 4i
G|--------------------|     RIFF 4a x4
D|--------------------|     RIFF 4b
A|-2222---------------|     RIFF 4c
E|-----222255550000---|     RIFF 4d x2
                            End Note
End Note
G|--------------------|     
D|--------------------|     
A|-2*-----------------|     
E|--------------------|     

| /  slide up
| \  slide down
| h  hammer-on
| p  pull-off
| ~  vibrato
| +  harmonic
| x  Mute note
| *  Let Ring
===============================================================================

            
            
Suggest correction
Creating personal tab
Creating personal tab
You can edit any tab online and save it as your Personal.

You can edit, replace or remove any tab part or add personal notes – all changes will be seen only by you.

Personal tabs can be accessed anytime from any device, even offline.
Learn more »
Give kudos to tab author, rate the tab!
1 2 3 4 5
comments
print report bad tab
guest
You may want to rate the tab now too:
select rating
Wanna post a correction for this tab? Suggest correction