Oops, an error
Loading. Please wait.

House Of Jealous Lovers bass

version 2
version 2

Whole song

Interactive

5,369 views 6 this week
no commentswrite comment
1 2 3 4 5
2 more votes to show rating
add to favorites
×
Save as Personal and add changes to this tab that will be seen only by you. Learn more ›
×
You can save this tab as Personal to edit and correct it or add notes. All changes will be seen only by you. Learn more »
launch autoscroll
font size
0
reset
guitar tuner
edit
Autoscroll
slow
fast
+/-
esc
set tempo
stop
Author
Difficulty
sorry i forgot to submit the tab before under my username, heres the same thing


the start(0.00-0.44) has pretty simply notes but a tricky rythm

---------------------------------------|
---------------------------------------|
--88-88-88--88-88-8-88-88--------------|
---------------------------------------|

55 seconds into the song the main bass part kicks in
----------------------------------------|
------6-----------------6---------------|
-8-8-----8p6-8------6h8-----8p6-8-------|
----------------------------------------|

at 1 minute 28 the riff alters

-----------------------------------------------------------|
-----6-8-8-8------6-8-8-8--------6-8-8-8-------6-8-6-------|
-8-8-----------8-8----------8--8---------8-8--------10-9---|
-----------------------------------------------------------|

at some passages during the song there is a slide to the main riff(eg 2.15)

-------------------|
-------6-----------|
-0/8-8-----8p6-8---|
-------------------|

during the solo/outro section the riff changes to

--------8\0----------|
-----6---------------|
-0/8-----------------|
---------------------|

at 4.18
-----5-------      ----5-------|
-------6----- then ------6-----| (play this second bit)
-0/8------6-7      --8-----6-7-|  two more times)
-------------      ------------|

at 4.26
-----8------------|
---6--------------|
-8------6--9------| play 4 times
------------------|

repeat the two riffs from 4. 18 over until the end of the song. they continue to cycle.

i hope this tab is accurate. enjoy

            
            
Suggest correction
Creating personal tab
Creating personal tab
You can edit any tab online and save it as your Personal.

You can edit, replace or remove any tab part or add personal notes – all changes will be seen only by you.

Personal tabs can be accessed anytime from any device, even offline.
Learn more »
Give kudos to tab author, rate the tab!
1 2 3 4 5
comments
print report bad tab
guest
You may want to rate the tab now too:
select rating
Wanna post a correction for this tab? Suggest correction