Oops, an error
Loading. Please wait.

Freakbeat Phantom tab

4,436 views 1 this week
3 commentsread comments
1 2 3 4 5
1 last vote to show rating
add to favorites
×
Save as Personal and add changes to this tab that will be seen only by you. Learn more ›
×
You can save this tab as Personal to edit and correct it or add notes. All changes will be seen only by you. Learn more »
launch autoscroll
font size
0
reset
how to read this tab
guitar tuner
edit
Autoscroll
slow
fast
+/-
esc
set tempo
stop
Author
this is a great song to play and to listen to. i think its right the intro bit is
probably wrong cause he uses a lot of effects. 
THE SYMBOL x/ IS PICK SCRAPE i didn't know the symbol for it sorry. 

Tabbed by:arcticm1



intro 
light pressure on the strings


e|--4----4-------------------4--------|
B|--4----5-------------------4--------|
G|--4----4------10-----------4--------|
D|--------------10--------------------|
A|--------------8----x/---------------|
E|------------------------------------|

verse
e|--4----4----------4-------------|
B|--4----5----------4-------------|
G|--4----4----10----4-------------|
D|--6---------10----6-------------|
A|--6---------8-----6-------------|
E|--------------------------------|

pre chrous

e|--4--4--4--4--4--4--4--4------------------4--4--4--4-------|
B|--4--4--4--4--5--5--5--5------------------4--4--4--4-------|
G|--4--4--4--4--4--4--4--4--10--10--10--10--4--4--4--4-------|
D|--6--6--6--6--------------10--10--10--10--6--6--6--6-------|
A|--6--6--6--6--------------8---8---8---8---6--6--6--6-------|
E|-----------------------------------------------------------|

chrous

e|----------------------------------------------------------------------|
B|----------------------------------------------------------------------|
G|----------------------------------------------------------------------|
D|--6666666699998888-66x66x66x66-99998888--66666666-99-99-99-99-6666666-|
A|--6666666699998888-66x66x66x66-99998888--66666666-99-99-99-99-6666666-|
E|--4444444477776666-44x44x44x44-77776666--44444444-77-77-77-77-4444444-|

e|------------------------------------|
B|------------------------------------|
G|-44-44-44-44----------44-44-44-44---|
D|-44-44-44-44-66666666-44-44-44-44-6-|
A|-22-22-22-22-66666666-22-22-22-22-6-|
E|-------------44444444-------------4-|

solo
e|-4-6-7---3-5-6----------------44444444/-12--------44444444-3333-2222-|
B|-------6-------5--4-3------------------------------------------------|
G|---------------------------------------------------------------------|
D|---------------------------------------------------------------------|
A|-------------------------1-22----------------1-22--------------------|
E|---------------------------------------------------------------------|

verse

e|--4----4----------4-------------|
B|--4----5----------4-------------|
G|--4----4----10----4-------------|
D|--6---------10----6-------------|
A|--6---------8-----6-------------|
E|--------------------------------|

break

bridge

e|----------------------------   ----------------------|
B|----------------------------   ----------------------|
G|----------------------------   ----------------------|
D|-4444-66666666-9999-77-44---   -66666666---9-3-------| play after 2nd time
A|-4444-66666666-9999-77-44---x2 -66666666---9-3-------|
E|-2222-44444444-7777-55-22---   -44444444---7-5-------|

chrous 2

e|-------------------------------------------------------------------|
B|-------------------------------------------------------------------|
G|-------------------------------------------------------------------|
D|--6666666699998888-66666666-99998888--66666666-99-99-99-99-6666666-|
A|--6666666699998888-66666666-99998888--66666666-99-99-99-99-6666666-|
E|--4444444477776666-44444444-77776666--44444444-77-77-77-77-4444444-|

e|-----------------------------------|
B|-----------------------------------|
G|-----------------------------------|
D|-99-99-99-99--66666666-99-99-99-99-|
A|-99-99-99-99--66666666-99-99-99-99-|
E|-77-77-77-77--44444444-77-77-77-77-|

"owwwww ow ow ow ow ow"

e|--4-------------4-------------|
B|--4-------------4-------------|
G|--4-------------4-------------|
D|--6-------------6-------------| x2
A|--6-------------6-------------|
E|------------------------------|


e|-----------------------------------------------------|
B|-----------------------------------------------------|
G|----------------------------------------44-44-44-44--|
D|--66666666--7777-66666666-7777-66666666-44-44-44-44--|
A|--66666666--7777-66666666-7777-66666666-22-22-22-22--|
E|--44444444--9999-44444444-9999-44444444--------------|

chrous

e|-------------------------------------------------------------------|
B|-------------------------------------------------------------------|
G|-------------------------------------------------------------------|
D|--6666666699998888-66666666-99998888--66666666-99-99-99-99-6666666-|
A|--6666666699998888-66666666-99998888--66666666-99-99-99-99-6666666-|
E|--4444444477776666-44444444-77776666--44444444-77-77-77-77-4444444-|

e|-----------------------------------|
B|-----------------------------------|
G|-----------------------------------|
D|-99-99-99-99--66666666-99-99-99-99-|
A|-99-99-99-99--66666666-99-99-99-99-|
E|-77-77-77-77--44444444-77-77-77-77-|


| /  slide up
| \  slide down
| h  hammer-on
| p  pull-off
| ~  vibrato
| +  harmonic
| x  Mute note
===============================================================================

            
            
Suggest correction
Creating personal tab
Creating personal tab
You can edit any tab online and save it as your Personal.

You can edit, replace or remove any tab part or add personal notes – all changes will be seen only by you.

Personal tabs can be accessed anytime from any device, even offline.
Learn more »
Give kudos to tab author, rate the tab!
1 2 3 4 5
comments
print report bad tab
3 comments total.
0 reply
indie_nation 2,605 Jun 17, 2008 09:47 AM

Great tab, great song

0 reply
s7706 811 Jul 10, 2008 11:35 AM

This is how i play the chorus and solo:

Chorus (0:46)

e|-6--6--6--6---6--6--6--6--x-x--4--x--x--4--x--x--4--x--x--4----|
B|-7--7--7--7---6--6--6--6--x-x--4--x--x--4--x--x--4--x--x--4----|
G|-8--8--8--8---6--6--6--6--x-x--4--x--x--4--x--x--4--x--x--4----|
D|-8--8--8--8---8--8--8--8--x-x--6--x--x--6--x--x--6--x--x--6----|
A|-6--6--6--6---8--8--8--8--x-x--6--x--x--6--x--x--6--x--x--6----|
E|--------------6--6--6--6--x-x--4--x--x--4--x--x--4--x--x--4----|

e|-6--6--6--6---6--6--6--6----4--4--4--4--4--4--4--4--|
B|-7--7--7--7---6--6--6--6----4--4--4--4--4--4--4--4--|
G|-8--8--8--8---6--6--6--6----4--4--4--4--4--4--4--4--|
D|-8--8--8--8---8--8--8--8----6--6--6--6--6--6--6--6--|
A|-6--6--6--6---8--8--8--8----6--6--6--6--6--6--6--6--|
E|--------------6--6--6--6----4--4--4--4--4--4--4--4--|

e|---------4--4--4--4-----------------4--4--4--4-------------------|
B|---------4--4--4--4-----------------4--4--4--4-------------------|
G|---------4--4--4--4-----------------4--4--4--4-------------------|
D|-9--9--9-6--6--6--6-x-9-x-9-x-9-9-4-6--6--6--6-x-9-x-9-x-9-9-4-6-|
A|-9--9--9-6--6--6--6-x-9-x-9-x-9-9-4-6--6--6--6-x-9-x-9-x-9-9-4-6-|
E|-7--7--7-4--4--4--4-x-7-x-7-x-7-7-2-4--4--4--4-x-7-x-7-x-7-7-2-4-|

Solo (1:11)
(t = tremolo picking)
e|-4--6--7--6---4------4--6--7--6-----------------4t--12t----4t--2t-|
B|-----------------6----------------5---4--3-2----------------------|
G|------------------------------------------------------------------|
D|------------------------------------------------------------------|
A|------------------------------------------------------------------|
E|---------------------------------------------2s4--------2s4-------|

0 reply
arcticm1 134 Jul 11, 2008 11:21 AM

i think ur right with the chrous der mate i dunno about the solo both sound gd

guest
You may want to rate the tab now too:
select rating
Wanna post a correction for this tab? Suggest correction