Oops, an error
Loading. Please wait.

Out Of Dreams tab

version 1
version 1

Whole song

2,741 views 3 this week
1 commentread comment
1 2 3 4 5
2 more votes to show rating
add to favorites
×
Save as Personal and add changes to this tab that will be seen only by you. Learn more ›
×
You can save this tab as Personal to edit and correct it or add notes. All changes will be seen only by you. Learn more »
launch autoscroll
font size
0
reset
how to read this tab
guitar tuner
edit
Autoscroll
slow
fast
+/-
esc
set tempo
stop
Author
Difficulty
i used the chorded version to help me but their were bits missing.
this is how i play it, it sounds right





Tabbed by:arcticm1


intro
e|--00-------|
B|--00-------|
G|--00-33----|x4
D|--22-33----| play Dm on the end of the 4th time
A|--22-11----|
E|-----------|

bass riff verse

pre chorus

e|--------------0------------------|
B|--------------0------------------|
G|--77777777----0------------------|
D|--77777777----2------------------| x2 
A|--55555555----2------------------|
E|---------------------------------|

e|--00-------|             
B|--00-------|
G|--00-33----|x2   
D|--22-33----| 
A|--22-11----|
E|-----------|


chorus

e|-----------------------------|
B|-----------------------------|
G|--55555555-------------------|
D|--55555555-66666666----------|
A|--33333333-66666666----------|
E|-----------44444444----------|

back into intro riff

e|--00-------|
B|--00-------|
G|--00-33----|x4
D|--22-33----| play Dm on the end of the 4th time
A|--22-11----|
E|-----------|

verse bass

verse guitar
e|------------------------|
B|------------------------|
G|--4-3--44---------------|x4
D|--4-3--44---------------|
A|--2-1--22---------------|
E|------------------------|

e|--00-------|             
B|--00-------|
G|--00-33----|x2   
D|--22-33----| 
A|--22-11----|
E|-----------|

chrous
e|-----------------------------|
B|-----------------------------|
G|--55555555-------------------|
D|--55555555-66666666----------| x4
A|--33333333-66666666----------|
E|-----------44444444----------|

bridge sort of thingy 

e|-------------------------|
B|-------------------------|
G|--6666-------------------|
D|--6666-------------------|
A|--4444---332255----------|
E|-------------------------|

then into this

e|-----------0000---------|
B|-----------0000---------|
G|---4444----0000---------|
D|---4444----2222---------| x 8 i think best of listening to the record
A|---2222----2222---------|
E|------------------------|

break

intro faster

e|--00-------|             
B|--00-------|
G|--00-33----|x16 listen to the record
D|--22-33----| 
A|--22-11----|
E|-----------|

pre chorus

e|--------------0------------------|
B|--------------0------------------|
G|--77777777----0------------------|
D|--77777777----2------------------| x8
A|--55555555----2------------------|
E|---------------------------------|

thats it done




| /  slide up
| \  slide down
| h  hammer-on
| p  pull-off
| ~  vibrato
| +  harmonic
| x  Mute note
===============================================================================

            
            
Suggest correction
Creating personal tab
Creating personal tab
You can edit any tab online and save it as your Personal.

You can edit, replace or remove any tab part or add personal notes – all changes will be seen only by you.

Personal tabs can be accessed anytime from any device, even offline.
Learn more »
Give kudos to tab author, rate the tab!
1 2 3 4 5
comments
print report bad tab
1 comment total.
0 reply
Sketchead 30 Feb 16, 2010 07:19 PM

e|--------------9-----|
B|--22----------11----|
G|--22xx33-[X4]-10----|
D|--22xx33------------|
A|--00xx11------------|
E|--------------------|

"Keep Your Eye On The Killer"
e|--55555555555555--------7---------|
B|--66666666666666--------8---------|
G|--77777777777777--------9---------|
D|--77777777777777--------9---------| x2
A|--55555555555555--------7---------|
E|--55555555555555--------7---------|

e|-----------|
B|-----------|
G|--22xx33---| x2
D|--22xx33---|
A|--22xx11---|
E|-----------|

Chorus (Struming Changes for the 3rd & 4th)

e|--3333333333333333---[12]----7777777777777777----|
B|--4444444444444444---[13]----7777777777777777----|
G|--5555555555555555-or[14]----8888888888888888----| X4
D|--5555555555555555---[14]----9999999999999999----|
A|--3333333333333333---[12]----9999999999999999----|
E|--3333333333333333---[12]----7777777777777777----|

e|--------------9-----|
B|--------------11----|
G|--22xx33-[X4]-10----|
D|--22xx33------------|
A|--22xx11------------|
E|--------------------|

"Now Our War Is Over"
Dont Know What Bit He Plays Here

"Now Theres Tretchtury In Thee Air"
e|----------------------------|
B|--------2-----2------2------|
G|-3-3-3--2-33--2--33--2------|
D|-3-3-3--2-31--2--33--2------|
A|-1-1-1--0-11--0--11--0------|
E|----------------------------|

e|-----------|
B|-----------|
G|--22xx33---| x4
D|--22xx33---|
A|--22xx11---|
E|-----------|

Chorus (Struming Changes for the 3rd & 4th)

e|--3333333333333333---[12]----7777777777777777----|
B|--4444444444444444---[13]----7777777777777777----|
G|--5555555555555555-or[14]----8888888888888888----| X4
D|--5555555555555555---[14]----9999999999999999----|
A|--3333333333333333---[12]----9999999999999999----|
E|--3333333333333333---[12]----7777777777777777----|

Listen To The Struming
e|--3333333333333333---|
B|--4444444444444444---|
G|--5555555555555555---|
D|--5555555555555555---|
A|--3333333333333333---|
E|--3333333333333333---|

Listen To The Struming
e|--777777777--------------------\/|
B|--888888888--------------------\/|
G|--999999999--------------------\/|
D|--999999999--99999999999---5--5\/|
A|--777777777--99999999999---5--5\/|
E|-------------77777777777---3--3\/|

Slide To The 553 After Dooin 1st 2 Bits A Few Times

Then Back To The Main Riff

guest
You may want to rate the tab now too:
select rating
Wanna post a correction for this tab? Suggest correction