Oops, an error
Loading. Please wait.

Not Like The Other Girls chords

version 2
version 2

Whole song

  • Specific chords, solos and timemarks included.

Interactive

157 views 6 this week
no commentswrite comment
1 2 3 4 5
x 3
add to favorites
×
Save as Personal and add changes to this tab that will be seen only by you. Learn more ›
×
You can save this tab as Personal to edit and correct it or add notes. All changes will be seen only by you. Learn more »
launch autoscroll
font size
0
reset
transpose
0
reset
simplify chords
display chords
guitar tuner
edit
Autoscroll
slow
fast
+/-
esc
set tempo
stop
About this tab version
Specific chords, solos and timemarks included. Was this info helpful? Yes No
Strumming
There is no strumming pattern for this song yet. and get +5 IQ
=====================================
The Rasmus - Not like the other girls
=====================================
Tabbed by: Kövis
Tuning: Standard E

[Intro]
[0:00]                                                +
        Em           Em           C             Em         
e|------------|------------|------------|----------------|
B|-12-10-8-7--|-12-10-8-7--|-12-10-8-7--|-12----10----12-|
G|--12-11-9-7-|--12-11-9-7-|--12-11-9-7-|12-12-11-11--12-| x1
D|------------|------------|------------|----------------|
A|------------|------------|------------|----------------|
E|------------|------------|------------|----------------|
        
        Em           Em           C            Em         
e|------------|------------|------------|----------------|
B|-12-10-8-7--|-12-10-8-7--|-12-10-8-7--|-12----10-------|
G|--12-11-9-7-|--12-11-9-7-|--12-11-9-7-|12-12-11-11-12--| x2
D|------------|------------|------------|----------------|
A|------------|------------|------------|----------------|
E|------------|------------|------------|----------------|

[Verse 1]
[1:04]
Em              
No more blame I am destined to keep you sane
                   C
Gotta rescue the flame
                               Em
Gotta rescue the flame in your heart

Em                           
No more blood, I will be there for you my love
                       C                                
I will stand by your side
                           Em
The world has forsaken my girl

[Bridge]
[1:44]
C                             Em           
  I should have seen it would be this way
C                                Em             D
  I should have known from the start what she's up to
C                                 Em        Em/F#         
  When you have loved and you've lost someone
G                    B            Am        B
  You know what it feels like to lose

[Chorus]
[2:07]
        Em
  She's fading away
Am
  Away from this world
D
  Drifting like a feather
         G                 F#/B
  She's not like the other girls
      Em         
  She lives in the clouds
      Am               
  and talks to the birds
D            
  Hopeless little one
       G                   B         
  She's not like the other girls I know

       Em            Em       
e|------------|--------------|
B|-12-10-8-7--|-12----10-----|
G|--12-11-9-7-|12-12-11-11-12|
D|------------|--------------|
A|------------|--------------|
E|------------|--------------|

[Verse 2]
[2:39]
Em
  No more shame, she has felt too much pain, in her life
                                  C
  In her mind she's repeating the words
                                  Em
  All the love you put out will retun to you

[Bridge]
[2:59]
C                             Em
  I should have seen it would be this way
C                              Em               D
  I should have known from the start what she's up to
C                                Em           Em/F#
  When you have loved and you've lost someone close to you
G                    B            Am        B
  You know what it feels like to lose

[Chorus]
[3:21]
       Em
  She's fading away
Am
  Away from this world
D
  Drifting like a feather
         G                 F#/B
  She's not like the other girls
      Em         
  She lives in the clouds
      Am               
  and talks to the birds
D          
  Hopeless little one
       G                   B        B 
  She's not like the other girls I know

[Solo]
[3:46]
e|------------|------------|------------|------------|------------|------------|------------|
B|------------|------------|----h17-----|------------|------------|------------|------------|
G|------------|------------|------------|------------|------------|------------|------------|
D|7h9-9-------|----5h7-5-4-|------------|-------5-7p5|--7b9--7----|----5--4----|--5-4-------|
A|------------|------------|-5h7--------|----5h7-----|------------|------------|--------7---|
E|------------|------------|------------|------------|------------|------------|------------|

e|-7-5-----------|------7-5--------|-----------------|--------5---5---|
B|----8-7-5-5-8-5|---------8-7-5---|-----8-7---------|----8-7--8-7----|
G|---------7-----|---------------7-|--------4--------|----------------|
D|---------------|-----------------|-----------------|----------------|
A|---------------|-----------------|-----------------|----------------|
E|---------------|-----------------|-----------------|----------------|

e|---------------|--------5---5----|-----------------|-------------------|
B|----8-7h8p7----|----8-7--8-7-----|----8-7h8p7------|-------------------|
G|-----------5---|-----------------|-----------4-----|4------------------|
D|---------------|-----------------|-----------------|-7-7-5-5-4-4-------|
A|---------------|-----------------|-----------------|------------7-7-5-7|
E|---------------|-----------------|-----------------|-------------------|

e|----------------10---------------|10-12-10-------------------------|
B|12-12-10-12-13-12-13-12-10-12-13-|--------13-12-10-12-13-12-10-----|
G|---------------------------------|----------------------------12-11|   X3
D|---------------------------------|---------------------------------|
A|---------------------------------|---------------------------------|
E|---------------------------------|---------------------------------|

e|------------11b12--11------------|
B|----------10---------------------|
G|-11--11-12-----------------------|
D|---------------------------------|
A|---------------------------------|
E|---------------------------------|

[Chorus]
[4:47]
       Em
  She's fading away
Am
  Away from this world
D
  Drifting like a feather
         G                 F#/B
  She's not like the other girls
      Em         
  She lives in the clouds
      Am               
  and talks to the birds
D          
  Hopeless little one
        G                  B        B 
  She's not like the other girls I know

[Outro]
[5:12]                                                 +
       Em           Em            C             Em       
e|------------|------------|------------|-------------12-|
B|12-10-8-7---|12-10-8-7---|12-10-8-7---|-12----10----12-|
G|-12-11-9-7--|-12-11-9-7--|-12-11-9-7--|12-12-11-11--12-| 
D|------------|------------|------------|----------------|
A|------------|------------|------------|----------------|
E|------------|------------|------------|----------------|

            
            
Suggest correction
Creating personal tab
Creating personal tab
You can edit any tab online and save it as your Personal.

You can edit, replace or remove any tab part or add personal notes – all changes will be seen only by you.

Personal tabs can be accessed anytime from any device, even offline.
Learn more »
Give kudos to tab author, rate the tab!
1 2 3 4 5
comments
print report bad tab
guest
You may want to rate the tab now too:
select rating
Wanna post a correction for this tab? Suggest correction