Oops, an error
Loading. Please wait.

Sail Away bass

version 1
version 1

Whole song

Interactive

2,721 views 1 this week
no commentswrite comment
1 2 3 4 5
1 last vote to show rating
add to favorites
×
Save as Personal and add changes to this tab that will be seen only by you. Learn more ›
×
You can save this tab as Personal to edit and correct it or add notes. All changes will be seen only by you. Learn more »
launch autoscroll
font size
0
reset
guitar tuner
edit
Autoscroll
slow
fast
+/-
esc
set tempo
stop
------------------------------------------------------------------------
Band: The Rasmus
Album: Hide from the sun
Song: Sail Away

This is Sail Away bass tab. I think it’s 90% correct 
So don’t expect much from me.
Anyways, just read it and try it. 

Intro: No bass

1st Verse:
“Once upon a time we had..”
G|--------------------------------||
D|--------------------------------||
A|--------7—-5h77--------7—-5h77--||
E|-5--4-5---------5--4-5----------||
“Sparks in the air..”
G|--------------------------------||
D|--------------------------------||
A|--------7—-5h77--------7—-5h77--||
E|-5--4-5---------5--4-5----------||

“Remember when I swore my love..”
G|--------------------------------||
D|--------------------------------||
A|--------7—-5h77--------7—-5h77--||
E|-5--4-5---------5--4-5----------||
“Remember when I swore we had..”
G|--------------------------------||
D|--------------------------------||
A|--------7—-5h77-------5-7—-5h77-||
E|-5--4-5---------5--4-5----------||

Prechorus:
“We had it all..”
G|--------------------------------||
D|--------------------------------||(hold the last 5
A|-7-5555555----------------------|| ‘till the chorus)
E|--------------------------------||

Chorus:
“I’ll sail away..”
G|--------------------------------||
D|--------------------------------||
A|-7--5-5-------------------------||
E|--------8--7-7------------------||
“Rainy days..”
G|--------------------------------||
D|--------------------------------||
A|---------------5-5--------------||
E|-8-7-7--7-5--5-------8-7-5-7----||

“I’ll fade away..”
G|--------------------------------||
D|--------------------------------||
A|-7--5-5-------------------------||
E|--------8--7-7------------------||
“You will stay..”
G|--------------------------------||
D|--------------------------------||
A|---------------5-5--------------||
E|-8-7-7--7-5--5------------------||

2nd Verse:
“Once upon a time we used..”
G|--------------------------------||
D|--------------------------------||
A|--------7—-5h77--------7—-5h77--||
E|-5--4-5---------5--4-5----------||
“The dream that we lived..”
G|--------------------------------||
D|--------------------------------||
A|--------7—-5h77-------5-7—-5h77-||
E|-5--4-5---------5--4-5----------||

“Remember when you swore that..”
G|--------------------------------||
D|--------------------------------||
A|--------7—-5h77--------7—-5h77--||
E|-5--4-5---------5--4-5----------||
“Remember when you swore we had..”
G|--------------------------------||
D|--------------------------------||
A|--------7—-5h77-------5-7—-5h77-||
E|-5--4-5---------5--4-5----------||

Prechorus:
Same as above

Chorus: 
Same as above

Pre-Bridge:
G|--------------------------------||
D|--------------------------------||
A|--------------------------------||
E|-0-0-0-0-0-0-0-0----------------||

Bridge:
G|---------------------------------||
D|---------------------------------||
A|---------------------------------||
E|-5-5-5-5-3-3-3-3-2-2-2-2-2-2-2-2-||
                                       
G|---------------------------------||
D|---------------------------------||
A|-2-2-2-2-2-2-2-2-3-3-3-3-3-3-3-3-||
E|---------------------------------||

G|---------------------------------||
D|---------------------------------||
A|---------------------------------||
E|-5-5-5-5-3-3-3-3-2-2-2-2-2-2-2-2-||

G|--------------------------------||
D|--------------------------------||
A|-2-2-2-2-2-2-2-2-2--------------||
E|--------------------------------||

Repeat chorus

Interlude before last choruses:
“Sail away”
G|--------------------------------||
D|--------------------------------||
A|-3-3-3-3-3-3-3-5-6-6-6-6-6/0----||
E|--------------------------------||

Last choruses:
“I’ll sail away..”
G|-----------------------------||
D|-----------------------------||
A|---------------5-5-5---------||
E|-2-2-2-0-0-0-0-------5-5-5-5-||
“Rainy days..”
G|---------------------------------||
D|---------------------------------||
A|-5-5-5---------2-2-2-------------||
E|-------5-5-5-5-------0-0-0-2-3-0-||     ** Repeat all this ‘till
                                         <- the end of the song
“I’ll fade away..”
G|-----------------------------||
D|-----------------------------||
A|---------------5-5-5---------|| 
E|-2-2-2-0-0-0-0-------5-5-5-5-||
“You will stay..”
G|---------------------------------||
D|---------------------------------||
A|-5-5-5---------2-2-2-------------||
E|-------5-5-5-5-------0-0-0-2-3-0-|| 

----------------------------------------------Tabbed by “ZeRo”----------

            
            
Suggest correction
Creating personal tab
Creating personal tab
You can edit any tab online and save it as your Personal.

You can edit, replace or remove any tab part or add personal notes – all changes will be seen only by you.

Personal tabs can be accessed anytime from any device, even offline.
Learn more »
Give kudos to tab author, rate the tab!
1 2 3 4 5
comments
print report bad tab
guest
Wanna post a correction for this tab? Suggest correction