Oops, an error
Loading. Please wait.

Sophia bass

version 1
version 1

Whole song

Interactive

807 views 1 this week
no commentswrite comment
1 2 3 4 5
2 more votes to show rating
add to favorites
×
Save as Personal and add changes to this tab that will be seen only by you. Learn more ›
×
You can save this tab as Personal to edit and correct it or add notes. All changes will be seen only by you. Learn more »
launch autoscroll
font size
0
reset
guitar tuner
edit
Autoscroll
slow
fast
+/-
esc
set tempo
stop
Sophia - Rasmus.
Go easy, it's my first tab, I figured it out myselk cause I couldn't find it anywhere. Rate please.


G||------------------------------------|
D||--------8/10-10-10-------8/10-10-10-|
A||--8--8------------------------------|
E||--------------------8--8------------|


                                                                                
------------------------------------------|------------------------------------|
----------12/14-14-14---------10/12-12-12-|--------8/10-10-10-------8/10-10-10-|
--12--12---------------10--10-------------|--8--8------------------------------|
------------------------------------------|--------------------8--8------------|


                                                                                
------------------------------------------|------------------------------------|
----------12/14-14-14---------10/12-12-12-|--------8/10-10-10-------8/10-10-10-|
--12--12---------------10--10-------------|--8--8------------------------------|
------------------------------------------|--------------------8--8------------|


                                                                                
------------------------------------------|------------------------------------|
----------12/14-14-14---------10/12-12-12-|--------8/10-10-10-------8/10-10-10-|
--12--12---------------10--10-------------|--8--8------------------------------|
------------------------------------------|--------------------8--8------------|


                                                                                
------------------------------------------|------------------------------------|
----------12/14-14-14---------10/12-12-12-|--------8/10-10-10-------8/10-10-10-|
--12--12---------------10--10-------------|--8--8------------------------------|
------------------------------------------|--------------------8--8------------|


                                                                                
------------------------------------------|------------------------------------|
----------12/14-14-14---------10/12-12-12-|--------8/10-10-10-------8/10-10-10-|
--12--12---------------10--10-------------|--8--8------------------------------|
------------------------------------------|--------------------8--8------------|


                                                                
------------------------------------------|--------------------|
----------12/14-14-14---------10/12-12-12-|--------------------|
--12--12---------------10--10-------------|--12----------------|
------------------------------------------|--------------------|


                                                         
------------------|------------------|------------------|
------------------|------------------|------------------|
------------------|------------------|------------------|
------------------|------------------|------------------|


                                                        
---------------------------|---------------------------|
---------------------------|---------------------------|
--12----8---------10--10---|--12----8---------10--10---|
-------------10------------|-------------10------------|


                                                        
---------------------------|---------------------------|
---------------------------|---------------------------|
--12----8---------10--10---|--12----8---------10--10---|
-------------10------------|-------------10------------|


                                                        
---------------------------|---------------------------|
---------------------------|---------------------------|
--12----8---------10--10---|--12----8---------10--10---|
-------------10------------|-------------10------------|


                                                        
---------------------------|---------------------------|
---------------------------|---------------------------|
--12----8---------10--10---|--12----8---------10--10---|
-------------10------------|-------------10------------|


                                                                  
--------------14------------10--|----------------------------12--|
----------14------------10------|------------10----------12------|
--12--12----------8--8----------|--------10------10--10----------|
--------------------------------|--8--8--------------------------|


                                                                  
--------------14------------10--|----------------------------12--|
----------14------------10------|------------10----------12------|
--12--12----------8--8----------|--------10------10--10----------|
--------------------------------|--8--8--------------------------|


                                                                  
--------------14------------10--|----------------------------12--|
----------14------------10------|------------10----------12------|
--12--12----------8--8----------|--------10------10--10----------|
--------------------------------|--8--8--------------------------|


                                                                  
--------------14------------10--|----------------------------12--|
----------14------------10------|------------10----------12------|
--12--12----------8--8----------|--------10------10--10----------|
--------------------------------|--8--8--------------------------|


                                                                                
------------------------------------|------------------------------------------|
--------8/10-10-10-------8/10-10-10-|----------12/14-14-14---------10/12-12-12-|
--8--8------------------------------|--12--12---------------10--10-------------|
--------------------8--8------------|------------------------------------------|


                                                                                
------------------------------------|------------------------------------------|
--------8/10-10-10-------8/10-10-10-|----------12/14-14-14---------10/12-12-12-|
--8--8------------------------------|--12--12---------------10--10-------------|
--------------------8--8------------|------------------------------------------|


                                                                                
------------------------------------|------------------------------------------|
--------8/10-10-10-------8/10-10-10-|----------12/14-14-14---------10/12-12-12-|
--8--8------------------------------|--12--12---------------10--10-------------|
--------------------8--8------------|------------------------------------------|


                                                                                
------------------------------------|------------------------------------------|
--------8/10-10-10-------8/10-10-10-|----------12/14-14-14---------10/12-12-12-|
--8--8------------------------------|--12--12---------------10--10-------------|
--------------------8--8------------|------------------------------------------|


                                                                    
--------------------|------------------|---------------------------|
--------------------|------------------|---------------------------|
--12----------------|------------------|--12----8---------10--10---|
--------------------|------------------|-------------10------------|


                                                        
---------------------------|---------------------------|
---------------------------|---------------------------|
--12----8---------10--10---|--12----8---------10--10---|
-------------10------------|-------------10------------|


                                                        
---------------------------|---------------------------|
---------------------------|---------------------------|
--12----8---------10--10---|--12----8---------10--10---|
-------------10------------|-------------10------------|


                                                        
---------------------------|---------------------------|
---------------------------|---------------------------|
--12----8---------10--10---|--12----8---------10--10---|
-------------10------------|-------------10------------|


                                                             
---------------------------|--------------14------------10--|
---------------------------|----------14------------10------|
--12----8---------10--10---|--12--12----------8--8----------|
-------------10------------|--------------------------------|


                                                                  
----------------------------12--|--------------14------------10--|
------------10----------12------|----------14------------10------|
--------10------10--10----------|--12--12----------8--8----------|
--8--8--------------------------|--------------------------------|


                                                                  
----------------------------12--|--------------14------------10--|
------------10----------12------|----------14------------10------|
--------10------10--10----------|--12--12----------8--8----------|
--8--8--------------------------|--------------------------------|


                                                                  
----------------------------12--|--------------14------------10--|
------------10----------12------|----------14------------10------|
--------10------10--10----------|--12--12----------8--8----------|
--8--8--------------------------|--------------------------------|


                                                                      
----------------------------12--|------------------------------------|
------------10----------12------|--------8/10-10-10-------8/10-10-10-|
--------10------10--10----------|--8--8------------------------------|
--8--8--------------------------|--------------------8--8------------|


                                                                                
------------------------------------------|------------------------------------|
----------12/14-14-14---------10/12-12-12-|--------8/10-10-10-------8/10-10-10-|
--12--12---------------10--10-------------|--8--8------------------------------|
------------------------------------------|--------------------8--8------------|


                                                                                
------------------------------------------|------------------------------------|
----------12/14-14-14---------10/12-12-12-|--------8/10-10-10-------8/10-10-10-|
--12--12---------------10--10-------------|--8--8------------------------------|
------------------------------------------|--------------------8--8------------|


                                                                                
------------------------------------------|------------------------------------|
----------12/14-14-14---------10/12-12-12-|--------8/10-10-10-------8/10-10-10-|
--12--12---------------10--10-------------|--8--8------------------------------|
------------------------------------------|--------------------8--8------------|


                                                                                
------------------------------------------|------------------------------------|
----------12/14-14-14---------10/12-12-12-|--------8/10-10-10-------8/10-10-10-|
--12--12---------------10--10-------------|--8--8------------------------------|
------------------------------------------|--------------------8--8------------|


                                                                              
----------------------------------------|------------------------------------|
--------12/14-14-14---------10/12-12-12-|--------8/10-10-10-------8/10-10-10-|
----12---------------10--10-------------|--8--8------------------------------|
----------------------------------------|--------------------8--8------------|


                                                                                
------------------------------------------|------------------------------------|
----------12/14-14-14---------10/12-12-12-|--------8/10-10-10-------8/10-10-10-|
--12--12---------------10--10-------------|--8--8------------------------------|
------------------------------------------|--------------------8--8------------|


                                                                                
------------------------------------------|------------------------------------|
----------12/14-14-14---------10/12-12-12-|--------8/10-10-10-------8/10-10-10-|
--12--12---------------10--10-------------|--8--8------------------------------|
------------------------------------------|--------------------8--8------------|


                                                                                
------------------------------------------|------------------------------------|
----------12/14-14-14---------10/12-12-12-|--------8/10-10-10-------8/10-10-10-|
--12--12---------------10--10-------------|--8--8------------------------------|
------------------------------------------|--------------------8--8------------|


                                                                                
------------------------------------------|------------------------------------|
----------12/14-14-14---------10/12-12-12-|--------8/10-10-10-------8/10-10-10-|
--12--12---------------10--10-------------|--8--8------------------------------|
------------------------------------------|--------------------8--8------------|


                                                                                
------------------------------------------|------------------------------------|
----------12/14-14-14---------10/12-12-12-|--------8/10-10-10-------8/10-10-10-|
--12--12---------------10--10-------------|--8--8------------------------------|
------------------------------------------|--------------------8--8------------|


                                                                                
------------------------------------------|------------------------------------|
----------12/14-14-14---------10/12-12-12-|--------8/10-10-10-------8/10-10-10-|
--12--12---------------10--10-------------|--8--8------------------------------|
------------------------------------------|--------------------8--8------------|


                                                               
------------------------------------------|-------------------|
----------12/14-14-14---------10/12-12-12-|-------------------|
--12--12---------------10--10-------------|--8----------------|
------------------------------------------|-------------------|


                                                          
------------------|------------------|------------------||
------------------|------------------|------------------||
------------------|------------------|------------------||
------------------|------------------|------------------||


cherry.lolly@gmail.com

            
            
Suggest correction
Creating personal tab
Creating personal tab
You can edit any tab online and save it as your Personal.

You can edit, replace or remove any tab part or add personal notes – all changes will be seen only by you.

Personal tabs can be accessed anytime from any device, even offline.
Learn more »
Give kudos to tab author, rate the tab!
1 2 3 4 5
comments
print report bad tab
guest
Wanna post a correction for this tab? Suggest correction