Oops, an error
Loading. Please wait.

Promised Land intro tab

484 views 24 this week
no commentswrite comment
1 2 3 4 5
3 more votes to show rating
add to favorites
×
Save as Personal and add changes to this tab that will be seen only by you. Learn more ›
×
You can save this tab as Personal to edit and correct it or add notes. All changes will be seen only by you. Learn more »
launch autoscroll
font size
0
reset
how to read this tab
guitar tuner
edit
Autoscroll
slow
fast
+/-
esc
set tempo
stop
Artist: The Raven Age
Track: Promised Land
Album: Darkness Will Rise
Tuning: Drop A#
Tabs by: Amerijckbeheerder

Some of you may know I took it upon myself to tab out (if posible) 
all tracks from The Raven Age's debut album. There are parts I can't figure out myself, therefore I'm sharing
everything I have up until now. People that are interested can collaborate to my effort and make it a joint
effort to tab out as many tracks as I/we can. Enjoy and thanks in advance!

\\\///
Track 2. Promised Land
Tempo: 97 BPM

[Intro]:

C |-----|-----|-----|-----| Lead (George). Figure out strumming pattern via original track
G |-----|-----|-----|-----| He also bends the A# octave during the strumming pattern.
D#|--7--|--7--|--10-|--8--|
A#|--x--|--x--|--x--|--x--|
F |--5--|--5--|--8--|--6--|
A#|-----|-----|-----|-----|

C |-----|-----|-----|-----| Rhythm (Dan). Figure out strumming pattern via original track
G |-----|-----|-----|-----| 
D#|-----|-----|-----|-----|
A#|-----|-----|-----|-----|
F |--0--|--0--|--8--|--10-|
A#|--0--|--0--|--8--|--10-|
PM   *     *     *     *

[Main Riff]:
Both guitars

C |-----------------------------------------------------------------| 
G |-----------------------------------------------6h8p6-------------|
D#|--7----------------------5--8---7--------------------8-7----5-8--|
A#|--7----------------------5--8---7-----------------------8-7------|
F |--5---0-0-0--0-0-0--0-0--3--6---5--0-0-0--0-0--------------------|
A#|------0-0-0--0-0-0--0-0------------0-0-0--0-0--------------------|
PM       * * *  * * *  * *            * * *  * *        * ** *


C |-----------------------------------------------------------------|
G |-----------------------------------------------------------------|
D#|--7----------------------5--8---7--------------------------------|
A#|--7----------------------5--8---7--------------------------------|
F |--5---0-0-0--0-0-0--0-0--3--6---5--0-0-0--0-0---5p3---3p1--------|
A#|------0-0-0--0-0-0--0-0------------0-0-0--0-0-------0-----0-3p1--|
PM       * * *  * * *  * *            * * *  * *       *     *

C |-----------------------------------------------------------------| 
G |-----------------------------------------------6h8p6-------------|
D#|--7----------------------5--8---7--------------------8-7----5-8--|
A#|--7----------------------5--8---7-----------------------8-7------|
F |--5---0-0-0--0-0-0--0-0--3--6---5--0-0-0--0-0--------------------|
A#|------0-0-0--0-0-0--0-0------------0-0-0--0-0--------------------|
PM       * * *  * * *  * *            * * *  * *        * ** *


C |-----------------------------------------------------------------|
G |-----------------------------------------------------------------|
D#|--7----------------------5--8---7--------------------------------|
A#|--7----------------------5--8---7--------------------------------|
F |--5---0-0-0--0-0-0--0-0--3--6---5--0-0-0--0-0---8p5---7p5--------|
A#|------0-0-0--0-0-0--0-0------------0-0-0--0-0-------0-----0-7p5--|
PM       * * *  * * *  * *            * * *  * *       *     *

[Verse 1 & 2]:
Both guitars

C |-----------------------------------------------------------------| 
G |-----------------------------------------------6h8p6-------------|
D#|--7----------------------5--8---7--------------------8-7----5-8--|
A#|--7----------------------5--8---7-----------------------8-7------|
F |--5---0-0-0--0-0-0--0-0--3--6---5--0-0-0--0-0--------------------|
A#|------0-0-0--0-0-0--0-0------------0-0-0--0-0--------------------|
PM       * * *  * * *  * *            * * *  * *        * ** *

C |-----------------------------------------------------------------|
G |-----------------------------------------------------------------|
D#|--7----------------------5--8---7--------------------------------|
A#|--7----------------------5--8---7--------------------------------|
F |--5---0-0-0--0-0-0--0-0--3--6---5--0-0-0--0-0---5p3---3p1--------|
A#|------0-0-0--0-0-0--0-0------------0-0-0--0-0-------0-----0-3p1--|
PM       * * *  * * *  * *            * * *  * *       *     *

C |-----------------------------------------------------------------| 
G |-----------------------------------------------6h8p6-------------|
D#|--7----------------------5--8---7--------------------8-7----5-8--|
A#|--7----------------------5--8---7-----------------------8-7------|
F |--5---0-0-0--0-0-0--0-0--3--6---5--0-0-0--0-0--------------------|
A#|------0-0-0--0-0-0--0-0------------0-0-0--0-0--------------------|
PM       * * *  * * *  * *            * * *  * *        * ** *

C |-------------------------------------------------------------------|
G |-------------------------------------------------------------------|
D#|--7----------------------5--8---7----------------------------------|
A#|--7----------------------5--8---7----------------------------------|
F |--5---0-0-0--0-0-0--0-0--3--6---5--0-0-0--0-0--0-0--0-0--0--0-0-0--|
A#|------0-0-0--0-0-0--0-0------------0-0-0--0-0--0-0--0-0--0--0-0-0--|
PM       * * *  * * *  * *            * * *  * *  * *  * *  *  * * *

C |-----------------------------------------------------------------|
G |-----------------------------------------------6h8p6-------------|
D#|--7----------------------5--8---7--------------------8-7----5-8--|
A#|--7----------------------5--8---7-----------------------8-7------|
F |--5---0-0-0--0-0-0--0-0--3--6---5--0-0-0--0-0--------------------|
A#|------0-0-0--0-0-0--0-0------------0-0-0--0-0--------------------|
PM       * * *  * * *  * *            * * *  * *        * ** *


C |-----------------------------------------------------------------|
G |-----------------------------------------------------------------|
D#|--7----------------------5--8---7--------------------------------|
A#|--7----------------------5--8---7--------------------------------|
F |--5---0-0-0--0-0-0--0-0--3--6---5--0-0-0--0-0---8p5---7p5--------|
A#|------0-0-0--0-0-0--0-0------------0-0-0--0-0-------0-----0-7p5--|
PM       * * *  * * *  * *            * * *  * *       *     *

[Pre-Chorus]:

(Palm mutes are triplets. Listen to the original track)
C |----------------------------------------------------| ------------------------------------------------|
G |----------------------------------------------------|-------------------------------------------------|
D#|----------------------------------------------------|-------------------------------------------------|
A#|--8--8--8--8--8--8--8--8--5--5--5--5--5-------------|-------------------------------------------------|
F |--8--8--8--8--8--8--8--8--5--5--5--5--5-------------|--0-0-0--0-0-0--0-0-0--0--0-0-0-0-0-0--0-0-0--0--|
A#|--8--8--8--8--8--8--8--8--5--5--5--5--5--8--7--5----|--0-0-0--0-0-0--0-0-0--0--0-0-0-0-0-0--0-0-0--0--|
PM                                                        * * *  * * *  * * *  *  * * * * * *  * * *  *

C |----------------------------------------------------| ------------------------------------------------|
G |----------------------------------------------------|-------------------------------------------------|
D#|----------------------------------------------------|-------------------------------------------------|
A#|--8--8--8--8--8--8--8--8--5--5--5--5--5-------------|-------------------------------------------------|
F |--8--8--8--8--8--8--8--8--5--5--5--5--5-------------|--0-0-0--0-0-0--0-0-0--0--0-0-0-0-0-0--0-0-0--0--|
A#|--8--8--8--8--8--8--8--8--5--5--5--5--5--8--7--5----|--0-0-0--0-0-0--0-0-0--0--0-0-0-0-0-0--0-0-0--0--|
PM                                                        * * *  * * *  * * *  *  * * * * * *  * * *  *

********************************

Legend
x - dead note
* - palm mute
p - pull off
h - hammer on

********************************






            
            
Suggest correction
Creating personal tab
Creating personal tab
You can edit any tab online and save it as your Personal.

You can edit, replace or remove any tab part or add personal notes – all changes will be seen only by you.

Personal tabs can be accessed anytime from any device, even offline.
Learn more »
Give kudos to tab author, rate the tab!
1 2 3 4 5
comments
print report bad tab
guest
You may want to rate the tab now too:
select rating
Wanna post a correction for this tab? Suggest correction