Oops, an error
Loading. Please wait.

Heart Of Stone intro tab

version 1
version 1

Intro

9,612 views 15 this week
3 commentsread comments
1 2 3 4 5
x 3
add to favorites
×
Save as Personal and add changes to this tab that will be seen only by you. Learn more ›
×
You can save this tab as Personal to edit and correct it or add notes. All changes will be seen only by you. Learn more »
launch autoscroll
font size
0
reset
how to read this tab
guitar tuner
edit
Autoscroll
slow
fast
+/-
esc
set tempo
stop
Difficulty
Pretty simple, really.
Took me all of ten minutes to work out by listening to the song.

E--------------------------|
B------------5-------------|
G-----6--4-6----6--4-6-4---|
D---4------------------7-4-|
A--------------------------|
E--------------------------|


E-------------------------|
B-------------------------|
G-----6--4-6-6--6---------|
D---4------------7-6-4----|
A----------------------7--|
E-------------------------|


By Chainsaw Arm.

            
            
Suggest correction
Creating personal tab
Creating personal tab
You can edit any tab online and save it as your Personal.

You can edit, replace or remove any tab part or add personal notes – all changes will be seen only by you.

Personal tabs can be accessed anytime from any device, even offline.
Learn more »
Give kudos to tab author, rate the tab!
1 2 3 4 5
comments
print report bad tab
3 comments total.
0 reply
Imptheshrimp 63 Feb 15, 2011 02:38 PM

This pretty correct, but may I suggest adding this extra note? Makes it flow better.

E--------------------------|
B------------5-------------|
G-----6--4-6----6--4-6-4---|
D---4--4---------------7-4-|
A--------------------------|
E--------------------------|

+1 reply
pdrok2 1,120 Sep 11, 2011 05:56 PM

in fact, the 4 in the D string repeats barely randomly along the riff

+1 reply
rockstar2be 84 May 22, 2013 05:52 AM

E-------------0----------------|
B---2---0-2-------2---0-2-0----|
G---------------------------2b-|
D-4---4-----4---4---4----------|
A------------------------------|
E------------------------------|

E------------------------------|
B---2---0-2---2---2------------|
G---------------------2-1------|
D-4---4-----4---4---4-----4-2--|
A------------------------------|
E------------------------------|

guest
Wanna post a correction for this tab? Suggest correction