Oops, an error
Loading. Please wait.

Angels Cry bass

2,008 views 1 this week
no commentswrite comment
1 2 3 4 5
3 more votes to show rating
add to favorites
×
Save as Personal and add changes to this tab that will be seen only by you. Learn more ›
×
You can save this tab as Personal to edit and correct it or add notes. All changes will be seen only by you. Learn more »
launch autoscroll
font size
0
reset
guitar tuner
edit
Autoscroll
slow
fast
+/-
esc
set tempo
stop
Author
++++++++++++++++++++++++++++++++++++++++++
| The Red Jumpsuit Apparatus- Angels Cry |
++++++++++++++++++++++++++++++++++++++++++


"Intentions that were pure have turned obscure..."

Tuning: Drop C  (CADG)


Intro
1.
G|-----|
D|-----|
A|-----|
C|-12\-|

Verse
"Well its hard to explain..."
2.
G|-------------------------------------------------|
D|-------------------------------------------------|
A|-------------------------------------------------|--x4
C|-0~----0~----4~----5~----0~----0~----4~----5~----|

Chorus
"Angels cry when stars collide..."
3.
G|---------------------------------------------------------|
D|---------------------------------------------------------|
A|---------------------------------------------------------|
C|-000000-000000-000000-000000-999999-999999-999999-999999-|

"And I cant eat..."
4.
G|---------------------------------------------------------|
D|---------------------------------------------------------|
A|---------------------------------------------------------|
C|-777777-777777-777777-777777-555555-555555-777777-777777-|

Outro
5.
G|------------------|
D|------------------|
A|------------------|
C|-0~---------------|

Verse
"Intentions that were pure have turned obscure..."
6.
G|-------------------------------------------------|
D|-------------------------------------------------|
A|-------------------------------------------------|--x2
C|-0~----0~----4~----5~----0~----0~----4~----5~----|

Chorus
"Angels cry when stars collide..."
7.
G|---------------------------------------------------------|
D|---------------------------------------------------------|
A|---------------------------------------------------------|
C|-000000-000000-000000-000000-999999-999999-999999-999999-|

"And I cant eat..."
8.
G|---------------------------------------------------------|
D|---------------------------------------------------------|
A|---------------------------------------------------------|
C|-777777-777777-777777-777777-555555-555555-777777-777777-|

"Angels cry when stars collide..."
9.
G|---------------------------------------------------------|
D|---------------------------------------------------------|
A|---------------------------------------------------------|
C|-000000-000000-000000-000000-999999-999999-999999-999999-|

"And I cant eat..."
10.
G|---------------------------------------------------------|
D|---------------------------------------------------------|
A|---------------------------------------------------------|
C|-777777-777777-777777-777777-555555-555555-777777-777777-|

Bridge
"My heart burns through..."
11.
G|-------------------------------------------------|
D|-------------------------------------------------|
A|-------------------------------------------------|
C|-0~----0~----4~----5~----0~----0~----4~----5~----|

"My chest to the floor..."
12.
G|-------------------------------------------------|
D|-------------------------------------------------|
A|-------------------------------------------------|
C|-0~----0~----4~----5~----0~----0~----4x----5x----|

"Tearing my silently although abruptly..."
13.
G|---------------------------------------------------------|
D|---------------------------------------------------------|
A|---------------333333-333333-----------------------------|
C|-000000-000000---------------999999-999999-999999-999999-|

"And I tried to see..."
14.
G|---------------------------------------------------------|
D|---------------------------------------------------------|
A|---------------------------------------------------------|
C|-777777-777777-777777-777777-55x----55x----777777-777777-|

Chorus
"Angels cry when stars collide..."
15.
G|---------------------------------------------------------|
D|---------------------------------------------------------|
A|---------------------------------------------------------|
C|-000000-000000-000000-000000-999999-999999-999999-999999-|

"And I cant eat..."
16.
G|---------------------------------------------------------|
D|---------------------------------------------------------|
A|---------------------------------------------------------|
C|-777777-777777-777777-777777-555555-555555-777777-777777-|

"Angels cry when stars collide..."
17.
G|---------------------------------------------------------|
D|---------------------------------------------------------|
A|---------------------------------------------------------|
C|-000000-000000-000000-000000-999999-999999-999999-999999-|

"And I cant eat..."
18.
G|---------------------------------------------------------|
D|---------------------------------------------------------|
A|---------------------------------------------------------|
C|-777777-777777-777777-777777-555555-555555-777777-777777-|

Outro
19.
G|------------------|
D|------------------|
A|------------------|
C|-0~---------------|


Lyrics: 


Well it's hard to explain but I'll try if you let me
Well its hard to sustain I'll cry if you let me
This doesn't change the way I feel about you or your place in my life
(please don't cry)
Can't you see I'm dying here?
A shot of broken heart that is chased with fear

Angels cry when stars collide
And I can't eat and I can't breathe
I wouldn't want it any other way

Intentions that were pure have turned obscure
Seconds into hours, minutes into years
Don't ask me why (please don't cry)
I cant tell you lies

My heart burns through
My chest to the floor
Tearing me silently although abruptly
Words cant hide as I'm taking you home
And I tried to see
Tried to understand your words as I'm taking you home



+++++++++++++++++++++++++++++++++
| RaiLeff                       |
| Underground__Dora@Hotmail.Com |
+++++++++++++++++++++++++++++++++

            
            
Suggest correction
Creating personal tab
Creating personal tab
You can edit any tab online and save it as your Personal.

You can edit, replace or remove any tab part or add personal notes – all changes will be seen only by you.

Personal tabs can be accessed anytime from any device, even offline.
Learn more »
Give kudos to tab author, rate the tab!
1 2 3 4 5
comments
print report bad tab
guest
You may want to rate the tab now too:
select rating
Wanna post a correction for this tab? Suggest correction