Oops, an error
Loading. Please wait.
16,524 views 3 this week
6 commentsread comments
1 2 3 4 5
x 4
add to favorites
×
Save as Personal and add changes to this tab that will be seen only by you. Learn more ›
×
You can save this tab as Personal to edit and correct it or add notes. All changes will be seen only by you. Learn more »
launch autoscroll
font size
0
reset
guitar tuner
edit
Autoscroll
slow
fast
+/-
esc
set tempo
stop
Author
Difficulty
Tabbed by: Tommy
Email: d3athwish456@yahoo.com
AIM screen name- Entersnh3r3

I'm more lazy than others. I keep it in Standard. So, I tab out songs in others to 
for lazy folks like me:

Intro
G|---------------------------------------------------------------|
D|---------------------------------------------------------------|
A|-------------------------6666666666666666----------------------|
E|-3733333333333333333-375------------------375-6666666666666666-|

G|----------------------|
D|----------------------|
A|----------------------|
E|-375-1111111111111111-|

Verse 1 & 2
G|---------------------------------------------------------------------|
D|---------------------------------------------------------------------|
A|------------------6666666666666666-----------------------------------|
E|-3333333333333333------------------6666666666666666-1111111111111111-|

Chorus
G|-----------------------------------------------------------------|
D|-----------------------------------------------------------------|
A|------------------6666666666666666-------------------------------|
E|-3333333333333333------------------6666666666666666-11-11-11-1-1-|

P-C
G|---------------|
D|---------------|
A|---------------|
E|-33-333-333-33-|

Bridge
G|-------------------------------------|
D|-------------------------------------|
A|-----------66666---------------------|
E|-33333---------------66666-----11111-|

G|-----------------------------------------------|
D|-----------------------------------------------|
A|-----------66666-------------------------------|
E|-33333---------------66666-----11111-11111-1-1-|


Ending
G|-----------------------------------------------------------------|
D|-----------------------------------------------------------------|
A|-----------------6-6-6-6-6-6-6-6---------------------------------|
E|-3-3-3-3-3-3-3-3-----------------6-6-6-6-6-6-6-6-1-1-1-1-1-1-1-1-|

G|--------------------------------------------------------------|
D|--------------------------------------------------------------|
A|-----------------6-6-6-6-6-6-6-6------------------------------|
E|-3-3-3-3-3-3-3-3-----------------6-6-6-6-6-6-6-6-11-11-11-1-1-|

G|------------|
D|------------|
A|------------|
E|-11-11-11-1-|

Order:
Intro
Verse 1 x2
Chorus x2
Post Chorus
Verse 2 x2
Chorus x2
Bridge


Enjoy punks.
Rock on

            
            
Suggest correction
Creating personal tab
Creating personal tab
You can edit any tab online and save it as your Personal.

You can edit, replace or remove any tab part or add personal notes – all changes will be seen only by you.

Personal tabs can be accessed anytime from any device, even offline.
Learn more »
comments
print report bad tab
6 comments total. Showing first comments.
0 reply
Bassta_Simon 10 Apr 05, 2007 01:57 AM

Great tab dude ;)

Very accurate..lazy 4 life !!

5/5

0 reply
nirvana_14 52 Sep 28, 2007 09:50 AM

standard rules... lol

0 reply
Lemurs4mangos 1,616 Sep 23, 2008 07:39 PM

Dude tabs great, I don't think it sounds right in drop D anyways

guest
You may want to rate the tab now too:
select rating
Wanna post a correction for this tab? Suggest correction