Oops, an error
Loading. Please wait.

Misery Loves Its Company tab

version 3
version 3

Interactive

1,416 views 1 this week
1 commentread comment
1 2 3 4 5
x 3
add to favorites
×
Save as Personal and add changes to this tab that will be seen only by you. Learn more ›
×
You can save this tab as Personal to edit and correct it or add notes. All changes will be seen only by you. Learn more »
launch autoscroll
font size
0
reset
how to read this tab
guitar tuner
edit
Autoscroll
slow
fast
+/-
esc
set tempo
stop
Artist: The Red Jumpsuit Apparatus
Song: Misery Loves' It's Company
Album: Dont You Fake It
Tabbed By: Patrick H.
Questions and Comments just email me at "Theycallmepaco@aol.com"



Rhythem Guitarist:

Intro Clean                     Overdriven
e-----------------------------------------------------|
B-----------------------------------------------------|
G--3----------5----------------11-------12-------12^--|
D--3----------5-----------5----9--------10-------10^--|
A--1----------3-----------5---------------------------|
D-------------------------5---------------------------|

Intro Overdriven
e-----------------------------------------------------|
B-----------------------------------------------------|
G---------------------------------5-------------------| (x2)
D-4-44444-4-2-22222-5-4-2-4-44444-x-2-222222---[6]----|
A-4-44444-4-2-22222-5-4-2-4-44444-3-2-222222---[6]----|
D-4-44444-4-2-22222-5-4-2-4-44444---2-222222---[6]----|
                                       [] Is played on second count.

Verse 1
e------------------------------------------------------|
B------------------------------------------------------|
G------------------------------------------------------|
D---4--------6-----2------6-----4------6-----2---------|
A---4--------6-----2------6-----4------6-----2---------|
D---4--------6-----2------6-----4------6-----2---------|



Chorus
e------------------------------------------------------|
B------------------------------------------------------|
G------------------------------------------------------|
D--4-------2--------4-------2--------------------------|
A--4-------2--------4-------2--------------------------|
D--4-------2--------4-------2--------------------------|


Verse 2
e------------------------------------------------------|
B------------------------------------------------------|
G------------------------------------------------------|
D---4--------6-----2----22--2-(2)-4------6-----2-------|
A---4--------6-----2----22--2-(2)-4------6-----2-------|
D---4--------6-----2----22--2-(2)-4------6-----2-------|
P.M.                    ..     .

Chorus 2
e------------------------------------------------------|
B------------------------------------------------------|
G------------------------------------------------------|
D--4-------2--------4-------2--------------------------|(x2)
A--4-------2--------4-------2--------------------------|
D--4-------2--------4-------2--------------------------|



Bridge
e-------------------------------------------------------|
B----14-1414-----13-1313---------11-1111-----13-1313----|
G------------12-----------12-------------12----------12-|
D-------------------------------------------------------|(x4)
A-------------------------------------------------------|
D-------------------------------------------------------|
                                            

e------------------------------------------------------|
B------------------------------------------------------|
G----7----5--------------------------------------------|
D----7----5-----4-----2-------------------11~----------|
A----5----3-----4-----2----(x2)-----------9~-----------|
D---------------4-----2--------------------------------|

Chorus 3
Don't play first half
e------------------------------------------------------|
B------------------------------------------------------|
G------------------------------5-----------------------|
D---2-2222--2-2222-------4-----5----2----4-------------|
A---2-2222--2-2222-------4-----3----2----4-------------|
D---2-2222--2-2222-------4----------2----4-------------|
P.M.  ....    ....        

Outro
e-----------------------------------------------------|
B-----------------------------------------------------|
G---------------------------------5-------------------| (x2)
D-4-44444-4-2-22222-5-4-2-4-44444-x-2-222222-----2----|
A-4-44444-4-2-22222-5-4-2-4-44444-3-2-222222-----2----|
D-4-44444-4-2-22222-5-4-2-4-44444---2-222222-----2----|


Outro (continued)
e-----------------------------------------------------|
B-----------------------------------------------------|
G-----------------------------------------------------|
D---10p8---7h8p7-5p0--------2-------------------------|
A---------------------------2-------------------------|
D---------------------------2-------------------------|





Lead Guitarist:


Intro Overdriven
e------------------------------------------------------------|
B------------------------------------------------------------|
G---------5-----------------------9--------------------------|
D-4-44444-x-2-22222-5-4-2-4-44444-7-2-22222-[10p8--7h8p7-5p0]|(x2)
A-4-44444-3-2-22222-5-4-2-4-44444---2-22222------------------|
D-4-44444---2-22222-5-4-2-4-44444---2-22222------------------|  
                                             [] Don't play 2nd time.
                       


Verse 1 Overdriven
e---------------------------------------------------------------------|
B---------------------------------------------------------------------|
G---7----9---5---7--------7-----------7-----------7-----------7-------|
D---7----9---5---7----7-5---5-7-5-7-5---5-7-5-7-5---5-7-5-7-5---5-7-5-|
A---5----7---3---5----------------------------------------------------|
D---------------------------------------------------------------------|
P.M.                  . . . . . . . . . . . . . . . . . . . . . . . . 
Verse 1 (continued)
e------------------------------------------------------------|
B------------------------------------------------------------|
G---------7----7p5-------------------------------------------|
D-----7-5---5------7p5-5p3-3p1-1p0---------------------------|
A----------------------------------3~------------------------|
D------------------------------------------------------------|
P.M.  . . . .


Chorus 1
e----------------------------------------------------------------|
B----------------------------------------------------------------|
G----12----14--11----12----14--11----12/14/16/17--17\16\14\12\11-|
D----x-----x---x-----x-----x---x-----x--x--x--x---x--x--x--x--x--|
A----10----12--9-----10----12--9-----10/12/14/15--15\14\12\10\9--|
D----------------------------------------------------------------|



Verse 2
e-----------------------------------------------------------------------|
B-----------------------------------------------------------------------|
G-----7----9---5----7-------7-----------7-----------7-----------7-------|
D-----7----9---5----7---7-5---5-7-5-7-5---5-7-5-7-5---5-7-5-7-5---5-7-5-|
A-----5----7---3----5---------------------------------------------------|
D-----------------------------------------------------------------------|
P.M.                .   . . . . . . . . . . . . . . . . . . . . . . . . 

Verse 2 (continued)
e------------------------------------------------------------|
B------------------------------------------------------------|
G---------7----7p5-------------------------------------------|
D-----7-5---5------7p5-5p3-3p1-1p0---------------------------|
A----------------------------------3~------------------------|
D------------------------------------------------------------|
P.M.  . . . .


Chorus 2
e----------------------------------------------------------------|
B----------------------------------------------------------------|
G----12----14--11----12----14--11----12/14/16/17--17\16\14\12\11-|
D----x-----x---x-----x-----x---x-----x--x--x--x---x--x--x--x--x--|(x2)
A----10----12--9-----10----12--9-----10/12/14/15--15\14\12\10\9--|
D----------------------------------------------------------------|



Bridge
e--------------------------------------------------------|
B--------------------------------------------------------|
G--9--(12\11\9---9)-----------9--11-12-------------------|
D--x--(x--x--x---x)-(x3)------x--x--x-------0------------|
A--7--(10\9\-7---7)-----------7--9--10------0------------|
D-------------------------------------------0------------|


e-------------------------------------------------------|
B----14-1414-----13-1313--------11-1111-----[13-1313]---|
G------------12-----------12------------12---------[12]-|
D-------------------------------------------------------|(x4)
A-------------------------------------------------------|
D-------------------------------------------------------|
                                       [] Don't Play 4th time.

Chorus 3
e----------------------------------------------------------------|
B----------------------------------------------------------------|
G----12----14--11----12----14--11----12/14/16/17--17\16\14\12\11-|
D----x-----x---x-----x-----x---x-----x--x--x--x---x--x--x--x--x--|(x2)
A----10----12--9-----10----12--9-----10/12/14/15--15\14\12\10\9--|
D----------------------------------------------------------------|



Outro
e------------------------------------------------------------|
B------------------------------------------------------------|
G---------5-----------------------9--------------------------|
D-4-44444-x-2-22222-5-4-2-4-44444-7-2-22222--10p8--7h8p7-5p0-|(x2)
A-4-44444-3-2-22222-5-4-2-4-44444---2-22222------------------|
D-4-44444---2-22222-5-4-2-4-44444---2-22222------------------|


e-----------------------------------------------------------------|
B-----------------------------------------------------------------|
G-----------------------------------------------------------------|
D---10p8---7h8p7-5p0-----10p8---7h8p7-5p0-------10p8---7h8p7-5p0--|
A-----------------------------------------------------------------|
D-----------------------------------------------------------------|


e----|
B----|
G----|
D--2-|
A--2-|
D--2-|

            
            
Suggest correction
Creating personal tab
Creating personal tab
You can edit any tab online and save it as your Personal.

You can edit, replace or remove any tab part or add personal notes – all changes will be seen only by you.

Personal tabs can be accessed anytime from any device, even offline.
Learn more »
Give kudos to tab author, rate the tab!
1 2 3 4 5
comments
print report bad tab
1 comment total.
0 reply
kersh94 61 Dec 30, 2008 02:51 AM

Good Try....

guest
You may want to rate the tab now too:
select rating
Wanna post a correction for this tab? Suggest correction