Oops, an error
Loading. Please wait.

Step Right Up tab

version 1
version 1

Whole song

Interactive

7,463 views 1 this week
5 commentsread comments
1 2 3 4 5
x 5
add to favorites
×
Save as Personal and add changes to this tab that will be seen only by you. Learn more ›
×
You can save this tab as Personal to edit and correct it or add notes. All changes will be seen only by you. Learn more »
launch autoscroll
font size
0
reset
how to read this tab
guitar tuner
edit
Autoscroll
slow
fast
+/-
esc
set tempo
stop
Author
Tabbers playing skills
advanced +
Pls comment for corrections...

Intro-
GtrI
|-----------------------------------|
|-----------------------------------|
|-----------------------------------|
|-1~--1-1-1-1-1-1-1-1-1-1-1h3-3-3---|
|-1~--1-1-1-1-1-1-1-1-1-1-1h3-3-3---|
|-1~--1-1-1-1-1-1-1-1-1-1-1h3-3-3---|
      * * * * * * * * * * *
GtrII
|-----------------------------------|
|-----------------------------------|
|-8~-------------77/88/1010/88/7----|
|-----------------------------------|
|-6~-------------55/66/8-8-/66/5----|
|-----------------------------------|

GtrI
|-------------------------------------------------------------------------|
|-------------------------------------------------------------------------|
|-10101010----------10101010---------7-7-7-7-----------7-7-7-7--5-5-5-5---|
|-8-8-8-8--1-1-1-1--8-8-8-8--7-7-7-7-5-5-5-5--1-1-1-1--5-5-5-5--3-3-3-3---|
|-8-8-8-8--1-1-1-1--8-8-8-8--8-8-8-8-5-5-5-5--1-1-1-1--5-5-5-5--3-3-3-3---|
|-8-8-8-8--1-1-1-1--8-8-8-8--7-7-7-7-5-5-5-5--1-1-1-1--5-5-5-5--3-3-3-3---|

GtrII
|-----------------------------------------------|
|-----------------------------------------------|
|-77-77-8-88-8-8/10-10/8--77-77-5-55-5-5/3-3/5--|
|-----------------------------------------------|
|-55-55-6-66-6-6/8--8-/6--55-55-3-33-3-3/1-1/3--|
|-----------------------------------------------|

|------------------------------------------------------|
|------------------------------------------------------|
|-77-77-8-88-8-8/10-10/8--1515-1515-5-55-5-5/3-3-3/5\3-|
|------------------------------------------------------|
|-55-55-6-66-6-6/8--8-/6--1313-1313-3-33-3-3/1-1-1/3\1-|
|------------------------------------------------------|

Verse-
Figure palm muting.....
|------------------------------------------------------------------|
|------------------------------------------------------------------|
|------------------------------------------------------------------|
|-8-8-8-8-8-8-8-8-8-8-8-8-8-8-8-8-1-1-1-1-1-1-1-1-1-1-1-1-1-1-1-1--|4x
|-8-8-8-8-8-8-8-8-8-8-8-8-8-8-8-8-1-1-1-1-1-1-1-1-1-1-1-1-1-1-1-1--|
|-8-8-8-8-8-8-8-8-8-8-8-8-8-8-8-8-1-1-1-1-1-1-1-1-1-1-1-1-1-1-1-1--|

GtrII
|---------------------------------------------------------------|
|---------------------------------------------------11--11------|
|-----------------------------------------3--3------10--10------|
|--------3--3-3-----------------------1---1--1------------------|
|--------1--1-1-----------------------1---1--1------------------|
|-------------------------------------1---1--1------------------|

|-----------------------------------------------------------------|
|------------------------------------------11--11--11h13p11h13-15-|
|------------------------------------------10--10-----------------|
|--------3--3-3-----------------------1---------------------------|
|--------1--1-1-----------------------1---------------------------|
|-------------------------------------1---------------------------|

|-----------------------------------------10--------|
|-111111--1111-1111--111111---1111--1111--11-131313-|
|-101010--1010-1010--101010---1010--1010--10-101010-|
|---------------------------------------------------|
|---------------------------------------------------|
|---------------------------------------------------|

|-------------10----------------------------11----------|
|-1111--1111--11-131313--1111---1111--1111--11-131313---|
|-1010--1010--10-101010--1010---1010--1010--10-101010---|
|-------------------------------------------------------|
|-------------------------------------------------------|
|-------------------------------------------------------|

Chorus-
GtrI
|-------------------------------------------------------------------------|
|-------------------------------------------------------------------------|
|-10101010----------10101010---------7-7-7-7-----------7-7-7-7--5-5-5-5---|
|-8-8-8-8--1-1-1-1--8-8-8-8--7-7-7-7-5-5-5-5--1-1-1-1--5-5-5-5--3-3-3-3---|
|-8-8-8-8--1-1-1-1--8-8-8-8--8-8-8-8-5-5-5-5--1-1-1-1--5-5-5-5--3-3-3-3---|
|-8-8-8-8--1-1-1-1--8-8-8-8--7-7-7-7-5-5-5-5--1-1-1-1--5-5-5-5--3-3-3-3---|

GtrII
|------------------------------------------------------------------------|
|------------------------------------------------------------------------|
|-10101010-8888-10101010-55555/3-3-7777-8-8-8-8-7777--5-55-5-5/3-3-3/5\3-|
|------------------------------------------------------------------------|
|-8-8-8-8--6666-8-8-8-8--33333/1-1-5555-6-6-6-6-5555--3-33-3-3/1-1-1/3\1-|
|------------------------------------------------------------------------|

Do verse-

Repeat Chorus-

Chorus2-
GtrI

|-------------------------------------------------------------------------|
|-------------------------------------------------------------------------|
|-10101010----------10101010---------7-7-7-7-----------7-7-7-7--5-5-5-5---|
|-8-8-8-8--1-1-1-1--8-8-8-8--7-7-7-7-5-5-5-5--1-1-1-1--5-5-5-5--3-3-3-3---|
|-8-8-8-8--1-1-1-1--8-8-8-8--8-8-8-8-5-5-5-5--1-1-1-1--5-5-5-5--3-3-3-3---|
|-8-8-8-8--1-1-1-1--8-8-8-8--7-7-7-7-5-5-5-5--1-1-1-1--5-5-5-5--3-3-3-3---|

GtrII
|-----------------------------------------------|
|-----------------------------------------------|
|-77-77-8-88-8-8/10-10/8--77-77-5-55-5-5/3-3/5--|
|-----------------------------------------------|
|-55-55-6-66-6-6/8--8-/6--55-55-3-33-3-3/1-1/3--|
|-----------------------------------------------|

|------------------------------------------------------|
|------------------------------------------------------|
|-77-77-8-88-8-8/10-10/8--1515-1515-5-55-5-5/3-3-3/5\3-|
|------------------------------------------------------|
|-55-55-6-66-6-6/8--8-/6--1313-1313-3-33-3-3/1-1-1/3\1-|
|------------------------------------------------------|

Bridge-

GtrI

|------------------------------------------------|
|------------------------------------------------|
|------------------------------------------------|
|-3~---------------5-----------1~----------------|
|-3~---------------5-----------1~----------------|
|-3~---------------5-----------1~----------------|


|------------------------------------------------|
|------------------------------------------------|
|---------------------------------3/5-55-55-33-2-|
|-3~---------------5------1~---------------------|
|-3~---------------5------1~---------------------|
|-3~---------------5------1~---------------------|

|------------------------------------------------|
|------------------------------------------------|
|------------------------------------------------|
|-3~---------------5-----------1~----------------|
|------------------5-----------1~----------------|
|------------------5-----------1~----------------|


|------------------------------------------------|
|------------------------------------------------|
|------------------------------------------------|
|-3~---------------5-----------1~----------------|2x
|-3~---------------5-----------1~----------------|
|-3~---------------5-----------1~----------------|

|------------------------------------------------|
|------------------------------------------------|
|------------------------------------------------|
|-3~---------------5-----------(these are 1's)---|
|-3~---------------5----------1111111111111111---|
|-3~---------------5----------1111111111111111---|
                              ****************
GtrII
|------------------1~-----------------1~----|
|------3-----------3~--------3--------3~----|
|---------3--------3~----------3------3~----|
|-3~---------1-----1~-----1~-----1----1~----|5x
|-------------------------------------------|
|-------------------------------------------|

|------------------1~-----------------------|
|------3-----------3~-----------------------|
|---------3--------3~-----------------------|
|-3~---------1-----1~------(these are 1's)--|
|------------------------1111111111111111---|
|------------------------1111111111111111---|
                         ****************


Chorus-
GtrI
|-------------------------------------------------------------------------|
|-------------------------------------------------------------------------|
|-10101010----------10101010---------7-7-7-7-----------7-7-7-7--5-5-5-5---|
|-8-8-8-8--1-1-1-1--8-8-8-8--7-7-7-7-5-5-5-5--1-1-1-1--5-5-5-5--3-3-3-3---|
|-8-8-8-8--1-1-1-1--8-8-8-8--8-8-8-8-5-5-5-5--1-1-1-1--5-5-5-5--3-3-3-3---|
|-8-8-8-8--1-1-1-1--8-8-8-8--7-7-7-7-5-5-5-5--1-1-1-1--5-5-5-5--3-3-3-3---|
GtrII
|------------------------------------------------------------------------|
|------------------------------------------------------------------------|
|-10101010-8888-10101010-55555/3-3-7777-8-8-8-8-7777--5-55-5-5/3-3-3/5\3-|
|------------------------------------------------------------------------|
|-8-8-8-8--6666-8-8-8-8--33333/1-1-5555-6-6-6-6-5555--3-33-3-3/1-1-1/3\1-|
|------------------------------------------------------------------------|
GtrIII
|-1010--1010--10-101010--1010---1010--1010--10-101010---|
|-1111--1111--11-111111--1113---1111--1111--11-111111---|
|-1010--1010--10-101010--1010---1010--1010--10-101010---|
|-------------------------------------------------------|cont
|-------------------------------------------------------|
|-------------------------------------------------------|

Chorus-
GtrI
|-------------------------------------------------------------------------|
|-------------------------------------------------------------------------|
|-10101010----------10101010---------7-7-7-7-----------7-7-7-7--5-5-5-5---|
|-8-8-8-8--1-1-1-1--8-8-8-8--7-7-7-7-5-5-5-5--1-1-1-1--5-5-5-5--3-3-3-3---|
|-8-8-8-8--1-1-1-1--8-8-8-8--8-8-8-8-5-5-5-5--1-1-1-1--5-5-5-5--3-3-3-3---|
|-8-8-8-8--1-1-1-1--8-8-8-8--7-7-7-7-5-5-5-5--1-1-1-1--5-5-5-5--3-3-3-3---|


|--------------------------------------------------------------------------|
|--------------------------------------------------------------------------|
|-10101010----------10101010---------7-7-7-7-----------7-7-7-7--5-5-5-5----|
|-8-8-8-8--1-1-1-1--8-8-8-8--7-7-7-7-5-5-5-5--1-1-1-1--5-5-5-5--3-3-3-3-8~-|
|-8-8-8-8--1-1-1-1--8-8-8-8--8-8-8-8-5-5-5-5--1-1-1-1--5-5-5-5--3-3-3-3-8~-|
|-8-8-8-8--1-1-1-1--8-8-8-8--7-7-7-7-5-5-5-5--1-1-1-1--5-5-5-5--3-3-3-3-8~-|

GtrII
|-----------------------------------------------|
|-----------------------------------------------|
|-77-77-8-88-8-8/10-10/8--77-77-5-55-5-5/3-3/5--|
|-----------------------------------------------|
|-55-55-6-66-6-6/8--8-/6--55-55-3-33-3-3/1-1/3--|
|-----------------------------------------------|

|------------------------------------------------------|
|------------------------------------------------------|
|-77-77-8-88-8-8/10-10/8--7-7--7-7--5-55-5-5/3-3-3/5\3-|
|------------------------------------------------------|
|-55-55-6-66-6-6/8--8-/6--5-5--5-5--3-33-3-3/1-1-1/3\1-|
|------------------------------------------------------|

|-----------------------------------------------|
|-77-77-8-88-8-8/10-10/8--77-77-5-55-5-5/3-3/5--|
|-----------------------------------------------|
|-55-55-6-66-6-6/8--8-/6--55-55-3-33-3-3/1-1/3--|
|-----------------------------------------------|

|-------------------------------------------------------|
|-------------------------------------------------------|
|-77-77-8-88-8-8/10-10/8--7-7--7-7--5-55-5-5/3-3-3/5\3~-|
|-------------------------------------------------------|
|-55-55-6-66-6-6/8--8-/6--5-5--5-5--3-33-3-3/1-1-1/3\1~-|
|-------------------------------------------------------|

            
            
Suggest correction
Creating personal tab
Creating personal tab
You can edit any tab online and save it as your Personal.

You can edit, replace or remove any tab part or add personal notes – all changes will be seen only by you.

Personal tabs can be accessed anytime from any device, even offline.
Learn more »
comments
print report bad tab
5 comments total. Showing first comments.
0 reply
worldofwayne 10 Feb 10, 2009 04:53 PM

Is this in drop d tuning or regular?

0 reply
doobidoo 6,272 Feb 11, 2009 04:26 PM

drop d

0 reply
nabotics 16 Mar 22, 2009 12:21 PM

The tab is in drop D, but RJA plays in Drop C... During the verse you can clearly hear that they're stepping up from the open C, to D, before the Eb.

guest
You may want to rate the tab now too:
select rating
Wanna post a correction for this tab? Suggest correction