Oops, an error
Loading. Please wait.

Waiting bass

version 2
version 2

Whole song

Interactive

609 views 1 this week
1 commentread comment
1 2 3 4 5
2 more votes to show rating
add to favorites
×
Save as Personal and add changes to this tab that will be seen only by you. Learn more ›
×
You can save this tab as Personal to edit and correct it or add notes. All changes will be seen only by you. Learn more »
launch autoscroll
font size
0
reset
guitar tuner
edit
Autoscroll
slow
fast
+/-
esc
set tempo
stop
Author
Difficulty
-------------------------------------------------------------------------------
			     Waiting- The Red Jumpsuit Apparatus
-------------------------------------------------------------------------------

Tabbed By :Pavilionmx75 
e-mail: pavilionmx75@yahoo.com

Tuning:(Standard)E,A,D,G

G|---------------------------------------------------------------------------|
D|-----------2223~3-3-3-3-3222-----------------------------------------------|
A|5-5-5-5-5-5-----------------1~1~--1~1~--1~1~--3~3333-----------------------|(Intro)
E|---------------------------------------------------------------------------|

G|---------------------------------------------------------------------------|
D|---------------------------------------------------------------------------|
A|(Rest until full band comes in)11111111111111111111111111111111555555555555|(Verse 1)
E|---------------------------------------------------------------------------|

G|---------------------------------------------------------------------------|
D|---------------------------------------------------------------------------|
A|5555555555555555555511111111111111113333333333333--------------------------|
E|---------------------------------------------------------------------------|

G|---------------------------------------------------------------------------|
D|-----------2223~3-3-3-3-3222-----------------------------------------------|
A|5-5-5-5-5-5-----------------1~1~-0h1~1~-0h1~1~-1h3~3-333------(x2)---------|(Chorus)
E|---------------------------------------------------------------------------|

G|---------------------------------------------------------------------------|
D|-----------32--------------------------------------------------------------|
A|5~5-5-5-5-5--33~h5-5-5-5---------------------------------------------------|(Breakdown)
E|---------------------------------------------------------------------------|

G|---------------------------------------------------------------------------|
D|---------------------------------------------------------------------------|
A|555555555555555555555555555555551111111111111111111111111111111155555555555|(Verse 2)
E|---------------------------------------------------------------------------|

G|---------------------------------------------------------------------------|
D|---------------------------------------------------------------------------|
A|555555555555555555511111111111111113333333333333---------------------------|
E|---------------------------------------------------------------------------|

G|---------------------------------------------------------------------------|
D|---------------------------------------------------------------------------|
A|------------------------(Chorus)-------------------------------------------|
E|---------------------------------------------------------------------------|

G|---------------------------------------------------------------------------|
D|---------------------------------------------------------------------------|
A|555-555-555-555-1~1-111-3~3-333-555-555-555-555-1~1-111-3~3-3--------------|
E|---------------------------------------------------------------------------|

G|---------------------------------------------------------------------------|
D|---------------------------------------------------------------------------|
A|------------------------(Chours)-------------------------------------------|
E|---------------------------------------------------------------------------|

G|---------------------------------------------------------------------------|
D|----------------3-3-3-3-3-3-3-3--------------------------------------------|
A|5-5-5-5-5-5-5-5-----------------1-1-1-1-1-1-1-1-3-3-3-3-3-3-3-3-(x2)-------|
E|---------------------------------------------------------------------------|

G|---------------------------------------------------------------------------|
D|-----------32--------------------------------------------------------------|
A|5~5-5-5-5-5--33~h5-5-5-5---------------------------------------------------|(Breakdown)
E|---------------------------------------------------------------------------|


| /  slide up
| \  slide down
| h  hammer-on
| p  pull-off
| ~  vibrato
| +  harmonic
| x  Mute note
===============================================================================

            
            
Suggest correction
Creating personal tab
Creating personal tab
You can edit any tab online and save it as your Personal.

You can edit, replace or remove any tab part or add personal notes – all changes will be seen only by you.

Personal tabs can be accessed anytime from any device, even offline.
Learn more »
Give kudos to tab author, rate the tab!
1 2 3 4 5
comments
print report bad tab
1 comment total.
0 reply
boredchika 209 Dec 09, 2009 12:18 AM

First of all you're playing the wrong octave all together, don't be so lazy and retune your guitar. Second, your rhythms are all weird. Putting all your 16th notes all mashed together like that makes for a very ugly tab when most of the song is 16th notes.

guest
You may want to rate the tab now too:
select rating
Wanna post a correction for this tab? Suggest correction