Oops, an error
Loading. Please wait.

King Of The Hill tab

version 5
version 5

Whole song

Interactive

99,987 views 168 this week
12 commentsread comments
1 2 3 4 5
x 30
add to favorites
×
Save as Personal and add changes to this tab that will be seen only by you. Learn more ›
×
You can save this tab as Personal to edit and correct it or add notes. All changes will be seen only by you. Learn more »
launch autoscroll
font size
0
reset
how to read this tab
guitar tuner
edit
Autoscroll
slow
fast
+/-
esc
set tempo
stop
Author
Difficulty
intermediate
[Intro]

e|-------------------------------------------------------------------|
B|-------------------------------------------------------------------|
G|-----------------------2-2-2-2-6-4---------------------2-----------|
D|---2-2-2-2-2-6-2-2-2-2-2-2-2-2-6-4-2-2-2-2-2-6-2-2-2-2-2-6-4-------|
A|---2-2-2-2-2-6-2-2-2-2-0-0-0-0-4-2-2-2-2-2-2-6-2-2-2-2-0-6-4-------|
E|---0-0-0-0-0-4-0-0-0-0-------------0-0-0-0-0-4-0-0-0-0---4-2-2h4p0-|

e|---------------------------------------------------------|
B|-----------------------------------5---------------------|
G|-----------------------2-2-2-2-6-4-4-6-4-2-----------9-9-|
D|---2-2-2-2-2-6-2-2-2-2-2-2-2-2-6-4-2-6-4-2-6---------9-9-|
A|---2-2-2-2-2-6-2-2-2-2-0-0-0-0-4-2---4-2-0-6---------7-7-|
E|---0-0-0-0-0-4-0-0-0-0---------------------4-4h5p4p0-----|


[Verse]

e|-------------------------------------------------|
B|-------------------------------------------------|
G|-6-6-6-6--------------------7-7-7-7-7------------|
D|-6-6-6-6--6-6-6-6--7-7-7-7--7-7-7-7-7--7-7-7-7-7-|
A|-4-4-4-4--6-6-6-6--7-7-7-7--5-5-5-5-5--7-7-7-7-7-|
E|----------4-4-4-4--5-5-5-5-------------5-5-5-5-5-|

e|---------------------------------------------------------|
B|---------------------------------------------------------|    after this go back to
G|-6-6-6-6-------------------------------------------------|    intro and play up till
D|-6-6-6-6--6-6-6-6--7-7-7-7-7-7-7-7--9-9--7-7--6-6--6s7s6-|    here 1 more time then
A|-4-4-4-4--6-6-6-6--7-7-7-7-7-7-7-7--9-9--7-7--6-6--6s7s6-|    play the intro again
E|----------4-4-4-4--5-5-5-5-5-5-5-5--7-7--5-5--4-4--4s5s4-|    then the solo.


[Solo 1]

e|-9------------------------------------------|
B|--------------------------9-----------------|
G|---11b(13)-9----9-11b(13)---11r(13)-9----9--|
D|-------------11-----------------------11----|
A|--------------------------------------------|
E|--------------------------------------------|

e|----------------------------------------------------------|
B|-12b(14)-12b(14)9-9h10p9----------------------------------|
G|-------------------------11-9-11b(13)-9----9----9----9----|
D|----------------------------------------11---11---11---11-|
A|----------------------------------------------------------|
E|----------------------------------------------------------|

e|------------------------------------------|
B|-10-10-10-10-10-9-9-12-12-12-12-12-10-9---|
G|--9--9--9--9--9-9-9--9--9--9--9--9--9-9---|
D|------------------------------------------|
A|------------------------------------------|
E|------------------------------------------|

                                       hold bend                  hold bend
e|---12-11-9-------------------------------------------------------12------|
B|-----------12-10-9-------------------------------12------14------15b(17)-|
G|-9-----------------11-11b(13)9----9-11-11b(13)---15b(16)-17b(18)---------|
D|-------------------------------11----------------------------------------|
A|-------------------------------------------------------------------------|
E|-------------------------------------------------------------------------|

then play the intro one more time then end the song with this last solo.


[Solo 2]

e|-12-9-7---------------12-9-7---7-7--12-9-7-------------|
B|--------9-7--5-5-------------9-------------9-7-5-5-----|
G|-----------------6-4-------------------------------6-4-|
D|-------------------------------------------------------|
A|-------------------------------------------------------|
E|-------------------------------------------------------|

e|-------------7h9-11b(12)-11-11b(12)9-7-9-----11b(12)-11-11b(12)-9-7-9-|
B|-----5h7-7h9-----------------------------7h9--------------------------|
G|-4h6------------------------------------------------------------------|
D|----------------------------------------------------------------------|
A|----------------------------------------------------------------------|
E|----------------------------------------------------------------------|

e|-11b(12)-11-11b(12)-9-7-9----------|
B|---------------------------7h9-----|
G|-------------------------------4h6-|
D|-----------------------------------|
A|-----------------------------------|
E|-----------------------------------|

now finish the song by playing this.

e|--------------------------------------|
B|--------------------------------------|
G|-------------------7-7----------------|
D|-2-----------------7-7----------------|
A|---4-2-0-----------5-5----------------|
E|---------4-4h5p4p0--------------------|


************************************

| h  Hammer-on
| p  Pull-off
| s  Slap
| b  bend
| r  release

************************************

            
            
Suggest correction
Creating personal tab
Creating personal tab
You can edit any tab online and save it as your Personal.

You can edit, replace or remove any tab part or add personal notes – all changes will be seen only by you.

Personal tabs can be accessed anytime from any device, even offline.
Learn more »
comments
print report bad tab
12 comments total. Showing first comments.
+1 reply
mark69 53 Apr 21, 2006 04:09 AM

great tab love it

0 reply
CurtisJay 136 Oct 12, 2006 06:13 PM

lol way to post a comment about your own tab chochbag

+5 reply
mark69 53 Jan 07, 2007 02:43 PM, edited on January 16 2017, 11:10 pm

lmfao, well i was getting bored of waiting for people to leave me one.

guest
You may want to rate the tab now too:
select rating
Wanna post a correction for this tab? Suggest correction