Oops, an error
Loading. Please wait.

Great Blue Sea bass

79 views 1 this week
no commentswrite comment
1 2 3 4 5
2 more votes to show rating
add to favorites
×
Save as Personal and add changes to this tab that will be seen only by you. Learn more ›
×
You can save this tab as Personal to edit and correct it or add notes. All changes will be seen only by you. Learn more »
launch autoscroll
font size
0
reset
guitar tuner
edit
Autoscroll
slow
fast
+/-
esc
set tempo
stop
Author
Difficulty
About this tab version
This is a complete bass tab of Great Blue Sea by The Reign of Kindo. Was this info helpful? Yes No
Song: Great Blue Sea
Artist: The Reign of Kindo
Album: Rhythm, Chord & Melody

Transcribed by: Sam Fahey (sam.j.fahey@gmail.com)
Last Updated: Dec. 3, 2016
Plucking Technique: Fingers
Tuning: E Standard
Tempo: ~170 BPM

[0:08] [INTRO] - "Fall into the sea..."
 | 1   2   3   4   5   6   | 1   2   3   4   5   6   | 1   2   3   4   5   6   | 1   2   3   4   5   6   |
G|-------------------------|-------------6h8---------|-------------------------|-------------------------|
D|-------------------------|---------------------8p6-|-------------------------|-------------------------|
A|-6~----------------------|-6~--------------6h8-----|-9~----------------------|-9~----------------------|
E|-------------------------|-------------------------|-------------------------|-------------------------|

G|-------------------------|-------------6h8---------|-------------------------|-------------------------|
D|-------------------------|-----------------x-8p6---|-------------------------|-------------------------|
A|-6~----------------------|-6~----------------------|-9~----------------------|-9~----------------------|
E|-------------------------|-------------------------|-------------------------|-------------------------|

 |1 2 3 4 5 6 |1 2 3 4 5 6 ...                         Diminuendo------------------------------>
G|------------|------------|------------|------------|------------|------------|------------|------Repeat|
D|------------|------------|------------|------------|------------|------------|------------|-------from-:
A|------------|------------|------------|------------|6~----------|6~----------|6~----------|6~-----Start:
E|2~--------2-|2~--------2-|2~--------2-|2~----------|------------|------------|------------|------------|

[1:15] [VERSE] - "The world is blue..."
G|------------|------------|------------|------------|------------|------------|------------|------------|
D|6~----------|6~----------|------------|------------|6~----------|6~----------|------------|------------|
A|------------|------------|4~----------|4~----------|------------|------------|4~----------|4~----------|
E|------------|------------|------------|------------|------------|------------|------------|------------|

[1:32] [REFRAIN] - Section 1
 | 1   2   3   4   5   6   | 1   2   3   4   5   6   | 1   2   3   4   5   6   | 1   2   3   4   5   6   |
G|-------------------------|-------------------------|-------------------------|-------6-----9-----8--6--|
D|-------------------------|-------------------------|-------------------------|----6-----6-----6--------|
A|-------------------------|-------------------------|-4~----------------------|-------------------------|
E|-4~----------------------|-4~------4---4---4---4---|-------------------------|-------------------------|

G|-------------------------|-------------------------|-------------------------|-------6-----9-----8--6--|
D|-------------------------|-------------------------|-------------------------|----6-----6-----6--------|
A|-------------------------|-------------------------|-4~----------------------|-------------------------|
E|-4~----------------------|-4---4---4---4---4---4---|-------------------------|-------------------------|

[1:49] [REFRAIN] - Section 2
 | 1   2   3   4   5   6   | 1   2   3   4   5   6   | 1   2   3   4   5   6   | 1   2   3   4   5   6   |
G|-------------------------|-------------------------|-------------------------|-------------------------|
D:-------------------------|-------------------------|-^-----^-------^-----^---|-^-----^-------^-----^---:x2
A:-^-----^-------^-----^---|-^-----^-------^-----^---|-4-----4-----x-4-----4---|-4-----4-----x-4-----4h6-:
E|-4---4-4-----x-4---x-4-x-|-4---4-4-----x-4---x-4-0/|-----4-------------4---4-|-----4-------------4-----|

[2:07] [REFRAIN] - Section 3
 | 1   2   3   4   5   6   | 1   2   3   4   5   6   | 1   2   3   4   5   6   | 1   2   3   4   5   6   |
G|-------------------------|-------------------------|-------------------------|-------------------------|
D|-------------------------|-------------------------|-------------------------|-------------------------|
A|-4---4-4h6/7---------6h7-|---------6h7-------------|-------------------------|-------------1212121212\-|
E|-------------7---7-------|-5---5-------4---4-5-4-2-|-3---3-3-3-3-4---4-4-4-4-|-5---5-5-5-5/------------|

G|-------------------------|-------------------------|-------------------------|
D|-------------------------|-------------------------|-------------------------|
A|-4---4-4h6/7---------6h7-|---------6h7-------------|-------------------------|
E|-------------7---7-------|-5---5-------4---4-5-4-2-|-3---3-3-3-3-4---4-4-4-4-|

 | 1   2   3   4   5   6   | 1   2   3   4   5   6   |[2:25] [FIRST BRIDGE]
G|-------------------------|-------------------------|-------------|-------------|------------|
D|-------------------------|-------------------------|-------------|-------------|------------|
A|-------------1212121212\-|-------------1212121212\-|-------------|-------------|------------|
E|-5-5-5-5-5-5/------------|-5-5-5-5-5-5/------------|-4~----------|-------------|------------|

 | 1   2   3   4   5   6   | 1   2   3   4   5   6   |   | 1   2   3   4   5   6   | 1   2   3   4   5   6   |
G|-------------------------|---^---^-----------------|   |-------------------------|---^---^-----------------|
D:-------------------------|---6---6~----------------:x4 |-------------------------|---6---6\----------------|
A:-------------------^---^-|-------------------------:   |-------------------^---^-|-------------------------|
E|-------------------4---4-|-------------------------|   |-------------------4---4-|-------------------------|

[2:56] [REFRAIN] - Section 1
 | 1   2   3   4   5   6   | 1   2   3   4   5   6   | 1   2   3   4   5   6   | 1   2   3   4   5   6   |
G|-------------------------|-------------------------|-------------------------|-------6-----9-----8--6--|
D|-------------------------|-------------------------|-------------------------|----6-----6-----6--------|
A|-------------------------|-------------------------|-4-----4-----4-----4-----|-------------------------|
E|-4-----4-----4-----4-----|-4-----4-----4-----4-----|-------------------------|-------------------------|

G|-------------------------|-------------------------|-------------------------|-------6-----9-----8--6--|
D|-------------------------|----6/8--6---------------|-------------------------|----6-----6-----6--------|
A|-------------------------|-------------6-----------|-4-----4-----4-----4-----|-------------------------|
E|-4~------------------0h2/|-4---------------4---7---|-------------------------|-------------------------|

[3:13] [REFRAIN] - Section 2
 | 1   2   3   4   5   6   | 1   2   3   4   5   6   | 1   2   3   4   5   6   | 1   2   3   4   5   6   |
G|-------------------------|-------------------------|-------------------------|-------------------------|
D:-------------------------|-------------------------|-^-----^-------^-----^---|-^-----^-------^-----^---:x2
A:-^-----^-------^-----^---|-^-----^-------^-----^---|-4-----4-----x-4-----4---|-4-----4-----x-4-----4h6-:
E|-4---4-4-----x-4---x-4-x-|-4---4-4-----x-4---x-4-0/|-----4-------------4---4-|-----4-------------4-----|

[3:30] [REFRAIN] - Section 3
 | 1   2   3   4   5   6   | 1   2   3   4   5   6   | 1   2   3   4   5   6   | 1   2   3   4   5   6   |
G|-------------------------|-------------------------|-------------------------|-------------------------|
D|-------------------------|-------------------------|-------------------------|-------------------------|
A|-4---4-4h6/7---------6h7-|---------6h7-------------|-------------------------|-------------1212121212\-|
E|-------------7---7-------|-5---5-------4---4-5-4-2-|-3---3-3-3-3-4---4-4-4-4-|-5---5-5-5-5/------------|

G|-------------------------|-------------------------|-------------------------|
D|-------------------------|-------------------------|-------------------------|
A|-4---4-4h6/7---------6h7-|---------6h7-------------|-------------------------|
E|-------------7---7-------|-5---5-------4---4-5-4-2-|-3---3-3-3-3-4---4-4-4-4-|

 | 1   2   3   4   5   6   | 1   2   3   4   5   6   |[3:49] [SECOND BRIDGE]
G|-------------------------|-------------------------|------------|------------|------------|------------|
D|-------------------------|-------------------------|------------|------------|------------|------------|
A|-------------1212121212\-|-------------1212121212/-|-14~--------|------------|-9~---------|------------|
E|-5-5-5-5-5-5/------------|-5-5-5-5-5-5/------------|------------|------------|------------|------------|

       play quietly and keep ringing...                   again...                  and again...
G|-------------------------|-------------------------|-------------------------|-------------------------|
D|-------------------------|-------------------------|-------------------------|-------------------------|
A|-14~-14--14--14--14--14--|-14--14--14--14--14--14--|-9~--9---9---9---9---9---|-7~--7---7---7---7---7---|
E|-------------------------|-------------------------|-------------------------|-------------------------|

 |1 2 3 4 5 6 |1 2 3 4 5 6 ...                          Crescendo----------------------------------->
G|------------|------------|------------|------------|------------|------------|------------|------------|
D|------------|------------|------------|------------|------------|------------|------------|------------|
A|2~2-2-2-2-2-|2~2-2-2-2-2-|------------|------------|------------|------------|------------|------------|
E|------------|------------|2~2-2-2-2-2-|2~2-2-2-2-2-|0~0-0-0-0-0-|0~0-0-0-0-0-|5~5-5-5-5-5-|5~5-5-5-5-5-|

[4:23] [REFRAIN] - Section 3 (half-step higher)
 | 1   2   3   4   5   6   | 1   2   3   4   5   6   | 1   2   3   4   5   6   | 1   2   3   4   5   6   |
G|-------------------------|-------------------------|-------------------------|-------------------------|
D|-------------------------|-------------------------|-------------------------|-------------------------|
A|-5---5-5h7/8---------7h8-|---------7h8-------------|-------------------------|-------------1313131313\-|
E|-------------8---8-------|-6---6-------5---5-6-5-3-|-4---4-4-4-4-5---5-5-5-5-|-6---6-6-6-6/------------|

G|-------------------------|-------------------------|-------------------------|
D|-------------------------|-------------------------|-------------------------|
A|-5---5-5h7/8---------7h8-|---------7h8-------------|-------------------------|
E|-------------8---8-------|-6---6-------5---5-6-5-3-|-4---4-4-4-4-5---5-5-5-5-|

G|-------------------------|-------------------------|-------------------------|-------------------------|
D|-------------------------|-------------------------|-------------------------|-------------------------|
A|-------------1313131313\-|-------------1313131313\-|-------------1313131313\-|-------------13~---------|
E|-6-6-6-6-6-6/------------|-6-6-6-6-6-6/------------|-6-6-6-6-6-6/------------|-6-6-6-6/----------------|

*************************************************

---- Legend ----

\ - slide down
/ - slide up
~ - let note ring
^ - accent, play loudly
h - hammer-on
p - pull-off
x - fret-hand mute
: - phrase repeats

*************************************************

            
            
Suggest correction
Creating personal tab
Creating personal tab
You can edit any tab online and save it as your Personal.

You can edit, replace or remove any tab part or add personal notes – all changes will be seen only by you.

Personal tabs can be accessed anytime from any device, even offline.
Learn more »
Give kudos to tab author, rate the tab!
1 2 3 4 5
comments
print report bad tab
guest
You may want to rate the tab now too:
select rating
Wanna post a correction for this tab? Suggest correction