Oops, an error
Loading. Please wait.

I Hear That Music Play guitar pro

1,200 views 3 this week
4 commentsread comments
1 2 3 4 5
x 6
add to favorites
guitar tuner
Autoscroll
slow
fast
+/-
esc
set tempo
stop
"I Hear That Music Play"
demo version
Play now

or get full version for Free

×
Get full version now!
Learn and play this song
in Tab Pro
Try for free

or get $10 off Welcome Bonus

Get welcome bonus
Get access to Tab Pro version of “I Hear That Music Play”!
Tab Pro is a premium guitar tab service, available on PC, Mac, iOS and Android
TRY FOR FREE
To download “I Hear That Music Play” Guitar Pro tab click button below
Please note that you must have Guitar Pro software installed on your
computer in order to view this file.
Suggest correction
comments
report bad tab
4 comments total. Showing first comments.
0 reply
Leg3nd5 10 Jun 23, 2013 09:46 AM

Really good job, very impressed with the piano part

0 reply
Leg3nd5 10 Jun 23, 2013 09:46 AM

very impressed with this tab

0 reply
ColdHeartedHero 217 Apr 23, 2014 03:08 PM

The only issue i can find is in the pianos first bar. it should be

-----------8--11-------------
--------------------------
-------12-------------------
---10-----------------------
--------------------------
--------------------------
instead of
-----------10--11-------------
--------------------------
-------12-------------------
---10-----------------------
--------------------------
--------------------------

Beyond that, its amazing, and I hope you do more Kindo tabs!!!

guest