Oops, an error
Loading. Please wait.

Brcm bass

706 views 1 this week
2 commentsread comments
1 2 3 4 5
1 last vote to show rating
add to favorites
×
Save as Personal and add changes to this tab that will be seen only by you. Learn more ›
×
You can save this tab as Personal to edit and correct it or add notes. All changes will be seen only by you. Learn more »
launch autoscroll
font size
0
reset
guitar tuner
edit
Autoscroll
slow
fast
+/-
esc
set tempo
stop
Author
-Big Rock Candy Mountain {originally by Harry 'Haywire' McClintock with slightly altered lyrics}

-The Restarts
-Slumworld

I got this off their site. Pretty easy song if you just listen to it. Props go to the 
for putting it up, all I did was put it all in order.
http://www.restarts.co.uk/


Guitar first then bass at 0:21
Intro/verse
G |--------------------------------------------------------------------------|
D |--------------------------------------------------------------------------|
A |-----------2-x4-----------------------------------------------------------|
E |--0-x8-------------3-3---5------------------------------------------------|


Chorus
G |------7/9-----7/9-------------------------------------------------------|
D |----9--------9-----------3/5------5/7-----------------------------------|
A |--7--------7-----------5---------7--------------------------------------|
E |----------------------3---------5---------------------------------------|

            
            
Suggest correction
Creating personal tab
Creating personal tab
You can edit any tab online and save it as your Personal.

You can edit, replace or remove any tab part or add personal notes – all changes will be seen only by you.

Personal tabs can be accessed anytime from any device, even offline.
Learn more »
Give kudos to tab author, rate the tab!
1 2 3 4 5
comments
print report bad tab
2 comments total.
0 reply
andrewbremner 10 Oct 17, 2014 02:13 PM

Lack of accuracy. it is not correct, and is not the tab copied from their site, i have now posted the real tab from their site

0 reply
andrewbremner 10 Oct 17, 2014 02:14 PM, edited at 06:15 pm

as said above.

guest
You may want to rate the tab now too:
select rating
Wanna post a correction for this tab? Suggest correction